» » »

Dark Tranquillity, Zodijackyl Light Bass tabs (ver.1)

Artists:  A B C D E F G H I J K L M N O P Q R S T U V W X Y Z # 

Zodijackyl Light Bass tabs (ver.1)

Dark Tranquillity Tabs
 Rating:
4/5 (4 votes)
Zodijackyl Light lessons Tabs too difficult? Try these video lessons and learn fast
                F#||----------------------|-----------------------|
C#||----------------------|-----------------------|
G#||--2--------2----2--2--|----0--0----0----0--0--|
D#||----------------------|-----------------------|


                                                                        
|-----------------------------------|----------------------------------|
|*----------------------------------|----------------------------------|
|*--2-2-2-2-2-2-2-2-2-2-2-2-2-2-2-2-|--0-0-0-0-0-0-0-0-0-0-0-0-0-0-0-0-|
|-----------------------------------|----------------------------------|


                                                                        
----------------------------------|-----------------------------------||
----------------------------------|----------------------------------*||
--2-2-2-2-0-0-0-0-2-4-5-4-2-4-5-4-|------------------0-0-0-0-0-0-0-0-*||
----------------------------------|--3-3-3-3-3-3-3-3------------------||


                                                                                
-------------------|----------------|-------------------|----------------------|
-------------------|----------------|-------------------|----------------------|
-------------------|--3--------2----|-------------------|--3------2------------|
--0----------------|----------------|--0----------------|----------------3--2--|


                                                              
----------------------------------|--------------------------|
----------------------------------|--------------------------|
----------------------------------|--3-3-3-3-3-3-3-3-2-2-2-2-|
--0-0-0-0-0-0-0-0-0-0-0-0-0-0-0-0-|--------------------------|


                                                                    
----------------------------------|--------------------------------|
----------------------------------|--------------------------------|
----------------------------------|--3-3-3-3-3-3-2-2-2-2-2-2-------|
--0-0-0-0-0-0-0-0-0-0-0-0-0-0-0-0-|--------------------------3--2--|


                                                                           
--------------------------|--------------------|--------------------------|
--------------------------|--------------------|--------------------------|
--------------------------|--3--3--3--3--2--2--|--------------------------|
--0--0--0--0--0--0--0--0--|--------------------|--0--0--0--0--0--0--0--0--|


                                                                           
--------------------------|--------------------------|--------------------|
--------------------------|--------------------------|--------------------|
--3--3--3--2--2--2--------|--------------------------|--3--3--3--3--2--2--|
--------------------3--2--|--0--0--0--0--0--0--0--0--|--------------------|


                                                      
--------------------------|--------------------------|
--------------------------|--------------------------|
--------------------------|--3--3--3--2--2--2--------|
--0--0--0--0--0--0--0--0--|--------------------3--2--|


                                                                      
----------------------------------|----------------------------------|
----------------------------------|----------------------------------|
--2-2-2-2-2-2-2-2-2-2-2-2-2-2-2-2-|--0-0-0-0-0-0-0-0-0-0-0-0-0-0-0-0-|
----------------------------------|----------------------------------|


                                                                      
----------------------------------|----------------------------------|
----------------------------------|----------------------------------|
--2-2-2-2-0-0-0-0-2-4-5-4-2-4-5-4-|------------------0-0-0-0-0-0-0-0-|
----------------------------------|--3-3-3-3-3-3-3-3-----------------|


                                            
----------------------|--------------------|
----------------------|--------------------|
--2--------2----2--2--|----0--0------------|
----------------------|--------------------|


                                                                        
|-----------------------------------|----------------------------------|
|*----------------------------------|----------------------------------|
|*----------------------------------|----------------------------------|
|---5-5-5-5-5-5-5-5-5-5-5-5-5-5-5-5-|--0-0-0-0-0-0-0-0-3-3-3-3-3-3-3-3-|


                                                                        
----------------------------------|-----------------------------------||
----------------------------------|----------------------------------*||
------------------3-3-3-3-3-3-3-3-|--5-5-5-5-5-5-5-5-2-2-2-2-5-5-5-5-*||
--5-5-5-5-5-5-5-5-----------------|-----------------------------------||


                                                                      
----------------------------------|----------------------------------|
----------------------------------|----------------------------------|
----------------------------------|----------------------------------|
--7-7-7-7-7-7-7-7-5-5-5-5-5-5-5-5-|--3-3-3-3-3-3-3-3-2-2-2-2-2-2-2-2-|


                                                                      
----------------------------------|----------------------------------|
----------------------------------|----------------------------------|
--7-7-7-7-7-7-7-7-5-5-5-5-5-5-5-5-|--3-3-3-3-3-3-3-3-0-0-0-0-2-2-2-2-|
----------------------------------|----------------------------------|


                                                                           
--------------------------|--------------------|--------------------------|
--------------------------|--------------------|--------------------------|
--------------------------|--3--3--3--3--2--2--|--------------------------|
--0--0--0--0--0--0--0--0--|--------------------|--0--0--0--0--0--0--0--0--|


                                                                           
--------------------------|--------------------------|--------------------|
--------------------------|--------------------------|--------------------|
--3--3--3--2--2--2--------|--------------------------|--3--3--3--3--2--2--|
--------------------3--2--|--0--0--0--0--0--0--0--0--|--------------------|


                                                                          
--------------------------|--------------------------|-------------------|
--------------------------|--------------------------|-------------------|
--------------------------|--3--3--3--2--2--2--------|-------------------|
--0--0--0--0--0--0--0--0--|--------------------3--2--|--0----------------|


                                                              
-------------------|-------------------|---------------------|
-------------------|-------------------|---------------------|
-------------------|--3----------------|--2---------2--------|
--0----------------|-------------------|---------0-----------|


                                                            
-------------------|-------------------|-------------------|
-------------------|-------------------|-------------------|
--0----------------|-------------------|--3----------------|
-------------------|--0----------------|-------------------|


                                                              
---------------------|-------------------|-------------------|
---------------------|-------------------|-------------------|
--2---------2--------|--0----------------|-------------------|
---------0-----------|-------------------|--0----------------|


                                                              
-------------------|---------------------|-------------------|
-------------------|---------------------|-------------------|
--3----------------|--2---------2--------|--0----------------|
-------------------|---------0-----------|-------------------|


                                                              
-------------------|-------------------|---------------------|
-------------------|-------------------|---------------------|
-------------------|--3----------------|--2---------2--------|
--0----------------|-------------------|---------0-----------|


                                                                  
|--------------------------------|-------------------------------|
|*--7----------7----------7------|-------------------------------|
|*-----0-0-0-0----0-0-0-0----0-0-|--7----------7----------7------|
|--------------------------------|-----0-0-0-0----0-0-0-0----0-0-|


                                                                  
-------------------------------|--------------------------------||
--5----------5----------5------|--4----------5----------5------*||
-----3-3-3-3----3-3-3-3----3-3-|-----2-2-2-2----2-2-2-2----2-2-*||
-------------------------------|--------------------------------||


                                                                      
----------------------------------|----------------------------------|
----------------------------------|----------------------------------|
--2-2-2-2-2-2-2-2-2-2-2-2-2-2-2-2-|--0-0-0-0-0-0-0-0-0-0-0-0-0-0-0-0-|
----------------------------------|----------------------------------|


                                                                      
----------------------------------|----------------------------------|
----------------------------------|----------------------------------|
--2-2-2-2-0-0-0-0-2-4-5-4-2-4-5-4-|------------------0-0-0-0-0-0-0-0-|
----------------------------------|--3-3-3-3-3-3-3-3-----------------|


                                                                      
----------------------------------|----------------------------------|
----------------------------------|----------------------------------|
--2-2-2-2-2-2-2-2-2-2-2-2-2-2-2-2-|--0-0-0-0-0-0-0-0-0-0-0-0-0-0-0-0-|
----------------------------------|----------------------------------|


                                                         
----------------------------------|---------------------|
----------------------------------|---------------------|
--2-2-2-2-0-0-0-0-2-4-5-4-2-4-5-4-|---------------------|
----------------------------------|--3------------5--3--|


                                                                        
|-----------------------------------|----------------------------------|
|*----------------------------------|----------------------------------|
|*----------------------------------|----------------------------------|
|---5-5-5-5-5-5-5-5-5-5-5-5-5-5-5-5-|--0-0-0-0-0-0-0-0-3-3-3-3-3-3-3-3-|


                                                                        
----------------------------------|-----------------------------------||
----------------------------------|----------------------------------*||
------------------3-3-3-3-3-3-3-3-|--5-5-5-5-5-5-5-5-2-2-2-2-5-5-5-5-*||
--5-5-5-5-5-5-5-5-----------------|-----------------------------------||


                                                                      
----------------------------------|----------------------------------|
----------------------------------|----------------------------------|
----------------------------------|----------------------------------|
--7-7-7-7-7-7-7-7-5-5-5-5-5-5-5-5-|--3-3-3-3-3-3-3-3-2-2-2-2-2-2-2-2-|


                                                                      
----------------------------------|----------------------------------|
----------------------------------|----------------------------------|
--7-7-7-7-7-7-7-7-5-5-5-5-5-5-5-5-|--3-3-3-3-3-3-3-3-0-0-0-0-2-2-2-2-|
----------------------------------|----------------------------------|


                                                                            
-------------------|--------------|------------------|---------------------|
-------------------|--------------|------------------|---------------------|
-------------------|--------------|------------------|------------2--------|
--0----------------|--------------|------------------|---------------3--2--|


                                                                             
|---------------------------|--------------------|--------------------------|
|*--------------------------|--------------------|--------------------------|
|*--------------------------|--3--3--3--3--2--2--|--------------------------|
|---0--0--0--0--0--0--0--0--|--------------------|--0--0--0--0--0--0--0--0--|


                                                                             
---------------------------||--------------------------|--------------------|
--------------------------*||--------------------------|--------------------|
--3--3--3--2--2--2--------*||--------------------------|--3--3--3--3--2--2--|
--------------------3--2---||--0--0--0--0--0--0--0--0--|--------------------|


                                                      
--------------------------|--------------------------|
--------------------------|--------------------------|
--------------------------|--3--3--3--2--2--2--------|
--0--0--0--0--0--0--0--0--|--------------------3--2--|


                                                                           
--------------------------|--------------------|--------------------------|
--------------------------|--------------------|--------------------------|
--------------------------|--3--3--3--3--2--2--|--------------------------|
--0--0--0--0--0--0--0--0--|--------------------|--0--0--0--0--0--0--0--0--|


                                                                           
--------------------------|--------------------------|--------------------|
--------------------------|--------------------------|--------------------|
--3--3--3--2--2--2--------|--------------------------|--3--3--3--3--2--2--|
--------------------3--2--|--0--0--0--0--0--0--0--0--|--------------------|


                                                   
--------------------------|----------------------||
--------------------------|----------------------||
--------------------------|--3--3--3-------------||
--0--0--0--0--0--0--0--0--|-----------0----------||
            
Submit corrections

comments powered by Disqus
↑ Back to top | Dark Tranquillity Bass for Zodijackyl Light. Lyrics for acoustic guitar and electric guitar. Tablatures and chords are parodies/interpretations of the original songs. You may use it for private study, scholarship, research or language learning purposes only