» » »

Tongues Tabs (ver.1)

Artists:  A B C D E F G H I J K L M N O P Q R S T U V W X Y Z # 

Tongues Tabs (ver.1)

Dark Tranquillity
Rating:
0/5 (0 votes)

Hard to play? Try these video lessons and learn fast.
                
Intro:
Slow part (1)

|----------------------------|-----------------------------|
|----------------------------|-----------------------------|
|---------4------------------|---------4-------------------|
|--4-8----2-6---7-7-4-4-6----|--4-8----2-6---7-7-4-4-6-----|
|--2-6------4---5-5-2-2-4----|--2-6------4---5-5-2-2-4-----|
|----------------------------|-----------------------------|

Part (2)

|----------------------------|-----------------------------|
|----------------------------|-----------------------------|
|----------------------------|--2h3p2-3----------2h3p2-----|
|-----2h3p2---2---4h5p4-2----|-3--------2h3p2-----------3--|
|--3--------3----------------|-----------------3-----------|
|----------------------------|-----------------------------|

|----------------------------|
|----------------------------|
|-2h3p2---2h3p2---4h5p4---5--|
|-------3-------3------------|
|----------------------------|
|----------------------------|

Part (3)

|----------------------------|-----------------------------|
|----------------------------|-----------------------------|
|----------------------------|-----------------------------|
|------5---3h4p3------6------|-5h6p5---8-8-6-5h6p5---------|
|--3-3-----------3-3---------|---------------------5-3-3---|
|----------------------------|-----------------------------|
repeat this 4x

Part (4)

|----------------------------|-----------------------------|
|----------------------------|-----------------------------|
|-----3h4p3---3h4p3-6-4h5p4/3|----3h4p3---3h4p3---5-4-3----|
|--5--------5----------------|--5-------5----------------5-|
|----------------------------|-----------------------------|
|----------------------------|-----------------------------|

Part (5)

|----------------------------|-----------------------------|
|----------------------------|-----------------------------|
|-----6-5h6p5----------------|-----4-3h4p3-----------------|
|--5------------3-2-1---5----|--3----------5-3-2-6~--------|
|----------------------------|-----------------------------|
|----------------------------|-----------------------------|



|----------------------------|
|----------------------------|
|-----6-5h6p5----------------|
|--5-----------3-2-1-5-or(6)-|
|----------------------------|
|----------------------------|

Repeat part (3) 2x

Part (6)

|----------------------------|-----------------------------|
|----------------------------|-----------------------------|
|----3h4p3-------------------|-----------------------------|
|--5-------6-5h6p5-2---1h2p1-|-2-4-5-----------------------|
|----------------------------|-----------------------------|
|----------------------------|-----------------------------|

Repeat part (2) 2x

Part (7)

|----------------------------|
|----------------------------|
|----2-1-----2-4-------------|
|--3------3-------6----------|
|----------------------------|
|----------------------------| repeat this till end of solo, first play it normal, then a bit slower for rest of the solo, you'll hear it when play it


Solo:

|-9h10p9---------------------|------9h10-9h10p9------------|
|--------10-9h10-12~--10p9---|-9h10------------------------|
|----------------------------|-----------------------------|
|----------------------------|-----------------------------|
|----------------------------|-----------------------------|
|----------------------------|-----------------------------|

|-12h13-10-12p10-8-10-9-8----|-----------------10-12-8-----|
|----------------------------|-10-8/9/10-12h13-------------|
|----------------------------|-----------------------------|
|----------------------------|-----------------------------|
|----------------------------|-----------------------------|
|----------------------------|-----------------------------|

|----------------------------|
|-8-10/12----13p12-----------|
|----------------------------|
|----------------------------|
|----------------------------|
|----------------------------|

Part (8)

|----------------------------|
|----------------------------|
|----------------------------|
|----2-1---4-4-4-4-----2-4---|
|--3-------2-2-2-2---3-----6-|
|----------x-x-x-x-----------| repeat 2x


Part (9)

|-9--------------------------|
|---10p9h10-7-12~-10p9h10----|
|----------------------------|
|----------------------------|
|----------------------------|
|----------------------------|

Repeat part (8) 2x

Repeat part (2) 2x

Part (10)

|----------------------------|-----------------------------|
|----------------------------|-----------------------------|
|-(5p4h5p4h5)-4h5p4---4---3--|-4h5p4---4----2-2h3p2--------|
|-------------------5---5----|-------3---3-----------------|
|----------------------------|-----------------------------|
|----------------------------|-----------------------------|

Part (11)

|----------------------------|
|----------------------------|
|----------------------------|
|---2h3p2---2-----4h5p4-2----|
|-3-------3------------------|

Repeat part (10) till end of song


feel free to mail me, reactions, better stuff:
            
Hard to play? Try these video lessons and learn fast. | Correct




comments powered by Disqus
↑ Back to top | Tablatures and chords are parodies/interpretations of the original songs. You may use it for private study, scholarship, research or language learning purposes only