» » »

Dark Tranquillity, There In Bass tabs (ver.1)

Artists:  A B C D E F G H I J K L M N O P Q R S T U V W X Y Z # 

There In Bass tabs (ver.1)

Dark Tranquillity Tabs
 Rating:
4/5 (4 votes)
There In lessons Tabs too difficult? Try these video lessons and learn fast
                Dark Tranquility There In

(Tune Down 3 Halfsteps)

Riff 1

A--------------------------------------3-5-7-------5-------3-------5--
E-7-5-3-----------0-5-7-----------------------------------------------

Riff 2

A---------------------------------------------------------------------------
E-0-------0-------2-------2----3550-------0-------2-------2----/7--

Riff 3

A-------------------------------------------------------22255777----------
E--00000332000003322222233222222355----4Th Time-22222332------------------

Riff 4

A-------------23--------------5235-55-55-55--------------------
E-0-00-00--003---3--33-33-33-----------------22----------------

Riff 5

D-----------------------------------------------------------9991212141414-
A-------------------------------------------------9991097109-------------
E-0-------0-------2-------2----3550-0---0---0---7-------------------------

Riff 6 
     
A-2--23--32--20--0-----2--23--20--02--23--32--20--0----2--23--20--02--23--32--20--0----2-------------
E-----------------3--3-----------------------------3--3----------------------------3--3--30--00--00--
            
Submit corrections

comments powered by Disqus
↑ Back to top | Dark Tranquillity Bass for There In. Lyrics for acoustic guitar and electric guitar. Tablatures and chords are parodies/interpretations of the original songs. You may use it for private study, scholarship, research or language learning purposes only