>
 >
Silence, And The Firmament Withdrew

Silence, And The Firmament Withdrew Guitar Tabs

Dark Tranquillity - Silence, And The Firmament Withdrew chords, tabs, tablatures, lyrics

Guitar lessons | Add/correct | Request | Top 50 tabs Artists:  A B C D E F G H I J K L M N O P Q R S T U V W X Y Z 0-9

Silence, And The Firmament Withdrew Guitar Tabs – Dark Tranquillity

CD, Sheet music, Poster

Do you like Silence, And The Firmament Withdrew? Share with your friends now
Tabs
Tune Gtr to Eb ( Eb, Ab, Db, Gb, Bb, Eb )

Silence and the firmament withdrew

|--------------------------------------------------------------------|
|--------------------------------------------------------------------|
|--------------------------------------------------------------------|Gtr
|----9---9p7h9-9---7h9p7---------------------------------------------| I
|-7----------------------7---9b-br-7---------------------------------|
|------------------------------------10------------------------------|
|                                                                    |
|-----0-------0------------------------------------------------------|
|---0---0---0---0----------------------------------------------------|
|---------------------0-----------0----------------------------------|Gtr
|-------------------4---4-------4---4--------------------------------| II
|------------------3----------2--------------------------------------|
|-0-------0-----------------0----------------------------------------|


|--------------------------------------------------------------------|
|--------------------------------------------------------------------|
|--------------------------------------------------------------------|Gtr
|----9---9p7h9-9---7h9p7---------------------------------------------| I
|-7----------------------7---9b-br-7---------------------------------|
|------------------------------------10------------------------------|
|                                                                    |
|-----0-------0------------------------------------------------------|
|---0---0---0---0----------------------------------------------------|
|---------------------0-----------0----------------------------------|Gtr
|-------------------4---4-------4---4--------------------------------| II
|------------------3----------2--------------------------------------|
|-0-------0-----------------0----------------------------------------|


|--------------------------------------------------------------------|
|--------------------------------------------------------------------|
|--------------------------------------------------------------------|Gtr
|-------------------------------------------------9-7----------------| I
|---77777-10-9--------77777-10-9-----7-1010101010-----9-99999-10-9---|
|-0------------10---0------------10--------------------------------10|
|   .....             .....                                          |
|--------------------------------------------------------------------|
|--------------------------------------------------------------------|
|--------------------------------------------------------------------|Gtr
|-----------------------------------------------------4--------------| II
|-2-----------------2-2--------------3----------------2--------------|
|-0-----------------0-0--------------3-------------------------------|


|--------------------------------------------------------------------|
|--------------------------------------------------------------------|
|--------------------------------------------------------------------|Gtr
|-------------------------------------------------9-7----------------| I
|---77777-10-9--------77777-10-9-----7-1010101010-----9-99999-10-9---|
|-0------------10---0------------10--------------------------------10|
|                                                                    |
|-----0-------0------------------------------------------------------|
|---0---0---0---0----------------------------------------------------|
|---------------------0-----------0----------------------------------|Gtr
|-------------------4---4-------4---4--------------------------------| II
|------------------3----------2--------------------------------------|
|-0-------0-----------------0----------------------------------------|


|--------------------------------------------------------------------|
|--------------------------------------------------------------------|
|--------------------------------------------------------------------|Gtr
|----9---9p7h9-9---7h9p7---------------------------------------------| I
|-7----------------------7---9b-br-7---------------------------------|
|------------------------------------10l.r.--------------------------|
|                                                                    |
|-----0-------0------------------------------------------------------|
|---0---0---0---0----------------------------------------------------|
|---------------------0-----------0----------------------------------|Gtr
|-------------------4---4-------4---4l.r.-----4--4--4--4--4--4--4--4-| II
|------------------3----------2--------------2--2--2--2--2--2--2--2--|
|-0-------0--------3--------0----------------------------------------|
                                             .. .. .. .. .. .. .. ..

|--------------------------------------------------------------------|
|--------------------------------------------------------------------|
|--------------------------------------------------------------------|Gtr
|--------------------------------------------------------------------| I
|--------------------------9--7h9-------7----------------------------|
|-10-7---7-9b-br-10-9-7--7--------9---9---10-9-----------------------|
|                                                                    |
|--------------------------------------------------------------------|
|--------------------------------------------------------------------|
|--------------------------------------------------------------------|Gtr
|----4----------5-4--------7--5h7-------4------7---------------------| II
|-5-----------------7h9p5---------7---5---7--5-----------------------|
|--------------------------------------------------------------------|


|--------------------------------------------------------------------|
|--------------------------------------------------------------------|
|--------------------------------------------------------------------|Gtr
|--------------------------------------------------------------------| I
|--------------------------9--7h9-----7------------------------------|
|-10-7---7-9b-br-10-9-7--7--------9------10--9-----------------------|
|                                                                    |
|--------------------------------------------------------------------|
|--------------------------------------------------------------------|
|--------------------------------------------------------------------|Gtr
|----4----------5-4--------7--5h7-----4------------------------------| II
|-5-----------------7h9p5---------7------7---5-----------------------|
|--------------------------------------------------------------------|


|--------------------------------------------------------------------|
|--------------------------------------------------------------------|
|--------------------------------------------------------------------|Gtr
|--------------------------------------------------------------------| I
|--------------------------------------------------------------------|
|-7-7h9-9p7-7----7h9h10-10-10-9-5-5h7--------------------------------|
|                                                                    |
|--------------------------------------------------------------------|
|--------------------------------------------------------------------|
|--------------------------------------------------------------------|Gtr
|--------------------------------------------------------------------| II
|-5-5h7-7p5-5----5h7h9--9--9--7-3-3h5--------------------------------|
|--------------------------------------------------------------------|


|--------------------------------------------------------------------|
|--------------------------------------------------------------------|
|--------------------------------------------------------------------|Gtr
|--------------------------------------------------------------------| I
|--------------------------------------------------------------------|
|-7-7h9-9p7-7----7h9h10-10-10-9-5-5h7--------------------------------|
|                                                                    |
|--------------------------------------------------------------------|
|--------------------------------------------------------------------|
|--------------------------------------------------------------------|Gtr
|-----------------------------7-5---------------11\(2)---------------| II
|-5-5h7-7p5-5----5h7h9--9--9------5h7--------------------------------|
|--------------------------------------------------------------------|


|--------------------------------------------------------------------|
|--------------------------------------------------------------------|
|--------------------------------------------------------------------|Gtr
|--------------------------------------------------------------------| I
|--------------------------------------------------------------------|
|-3--3-3-3--5-----5--5-5-5--7----------------------------------------|
|                                                                    |
|--------------------------------------------------------------------|
|--------------------------------------------------------------------|
|--------------------------------------------------------------------|Gtr
|------------------------4--4----------------------------------------| II
|-2--2-2-2--4-----5--5h8---------------------------------------------|
|--------------------------------------------------------------------|


|--------------------------------------------------------------------|
|--------------------------------------------------------------------|
|--------------------------------------------------------------------|Gtr
|--------------------------------------------------------------------| I
|--------------------------------------------------------------------|
|-7-7h9-9p7-7--7h9h10-10-10-9-5-5h7--7-7h9-9p7-7---------------------|
|                                                                    |
|--------------------------------------------------------------------|
|--------------------------------------------------------------------|
|--------------------------------------------------------------------|Gtr
|--------------------------------------------------------------------| II
|-5-5h7-7p5-5--5h7h9--9--9--7-3-3h5--5-5h7-7p5-5---------------------|
|--------------------------------------------------------------------|


|--------------------------------------------------------------------|
|--------------------------------------------------------------------|
|--------------------------------------------------------------------|Gtr
|--------------------------------------------------------------------| I
|--------------------------------------------------------------------|
|-7-7h9-9p7-7----7h9h10-10-10-9-5-5h7--------------------------------|
|                                                                    |
|--------------------------------------------------------------------|
|--------------------------------------------------------------------|
|--------------------------------------------------------------------|Gtr
|-----------------------------7-5---------------11\(2)---------------| II
|-5-5h7-7p5-5----5h7h9--9--9------5h7--------------------------------|
|--------------------------------------------------------------------|


|--------------------------------------------------------------------|
|--------------------------------------------------------------------|
|--------------------------------------------------------------------|Gtr
|--------------------------------------------------------------------| I
|--------------------------------------------------------------------|
|-3--3-3-3--5-----5--5-5-5-------------------------------------------|
|                                                                    |
|--------------------------------------------------------------------|
|--------------------------------------------------------------------|
|--------------------------------------------------------------------|Gtr
|------------------------4-------------------------------------------| II
|-2--2-2-2--4-----5--5h8---------------------------------------------|
|--------------------------------------------------------------------|


|--------------------------------------------------------------------|
|--------------------------------------------------------------------|
|--------------------------------------------------------------------|Gtr
|----9---9p7h9-9---7h9p7---------------------------------------------| I
|-7----------------------7---9b-br-7---------------------------------|
|------------------------------------10l.r.--------------------------|
|                                                                    |
|-----0-------0------------------------------------------------------|
|---0---0---0---0----------------------------------------------------|
|---------------------0-----------0----------------------------------|Gtr
|-------------------4---4-------4---4l.r.-----4--4--4--4--4--4--4--4-| II
|------------------3----------2--------------2--2--2--2--2--2--2--2--|
|-0-------0--------3--------0----------------------------------------|
                                             .. .. .. .. .. .. .. ..
|--------------------------------------------------------------------|
|--------------------------------------------------------------------|
|--------------------------------------------------------------------|Gtr
|-------------------------------------------------9-7----------------| I
|---77777-10-9--------77777-10-9-----7-1010101010-----9-99999-10-9---|
|-0------------10---0------------10--------------------------------10|
|   .....             .....                                          |
|--------------------------------------------------------------------|
|--------------------------------------------------------------------|
|-------------------------------------------------7-9----------------|Gtr
|------------7-9---------------7-9---9--9-9-9-9-9-----9-99999-7------| II
|---77777-10----------77777-10--------------------------------10-7-10|
|-0-----------------0------------------------------------------------|
    .....             .....                             .....

|--------------------------------------------------------------------|
|--------------------------------------------------------------------|
|--------------------------------------------------------------------|Gtr
|----9---9p7h9-9---7h9p7---------------------------------------------| I
|-7----------------------7---9b-br-7---------------------------------|
|------------------------------------10------------------------------|
|                                                                    |
|-----0-------0------------------------------------------------------|
|---0---0---0---0----------------------------------------------------|
|---------------------0-----------0----------------------------------|Gtr
|-------------------4---4-------4---4--------------------------------| II
|------------------3----------2--------------------------------------|
|-0-------0-----------------0----------------------------------------|


|--------------------------------------------------------------------|
|--------------------------------------------------------------------|
|--------------------------------------------------------------------|Gtr
|----9---9p7h9-9---9b-l.r.-9br-l.r.----------------------------------| I
|-7------------------------------------------------------------------|
|--------------------------------------------------------------------|
|                                                                    |
|-----0-------0------------------------------------------------------|
|---0---0---0---0----------------------------------------------------|
|---------------------0-----------0----------------------------------|Gtr
|-------------------4---4-------4---4--------------------------------| II
|------------------3----------2--------------------------------------|
|-0-------0-----------------0----------------------------------------|


|------------------------------------------------10--10-8-7----------|
|--------------7-9-7-------7-9-7----------------------------10-8-7---|
|-9--7-------7-------7---7-------7/9---7-8----7-8------------------7h|Gtr
|------9---9-----------9-------------------7-------------------------| I
|--------------------------------------------------------------------|
|--------------------------------------------------------------------|
|                                                                    |
|--------------------------------------------------------------------|
|--------------------------------------------------------------------|
|--------------------------------------------------------------------|Gtr
|-9----9---5-----------4-----------9-------9------5---4--------------| II
|-7----7---3-----------2-----------7-------7------3---2--------------|
|--------------------------------------------------------------------|


|----------------------7l.r.---------------------------------7a.h.---|
|-----------------------------------------8-----7--------------------|
|-9l.r.--------------------------------------------------7-----------|Gtr
|--------------------------------------------------------------------| I
|--------------------------------------------------------------------|
|--------------------------------------------------------------------|
|                                                                    |
|--------------------------------------------------------------------|
|--------------------------------------------------------------------|
|--------------------------------------------------------------------|Gtr
|--------------------------------------------------------9-7---------| II
|---77-77-7--10-9--------77-77-7-10-9-----7-1010-1010-10-----222222--|
|-0---------------10---0--------------10---------------------000000--|
                                                             ......

|--------------------------------------------------------------------|
|--------------------------------------------------------------------|
|--------------------------------------------------------------------|Gtr
|------------------------------------------------9-7-----------------| I
|---77777-10-9-------77777-10-9-----7-1010101010-----9-99999-10-9----|
|-0------------10--0------------10--------------------------------10-|
|   .....            .....                                           |
|--------------------------------------------------------------------|
|--------------------------------------------------------------------|
|--------------------------------------------------------------------|Gtr
|------------------------------------------------7-2-4---------------| II
|-2----------------2-2--------------3------------5-0-2---------------|
|-0----------------0-0--------------3--------------------------------|


|--------------------------------------------------------------------|
|--------------------------------------------------------------------|
|--------------------------------------------------------------------|Gtr
|------------9----------1010109--------------------------------------| I
|-9--10-9--5-7----------8-8-8-7--------------------------------------|
|--------------------------------------------------------------------|
|                                                                    |
|--------------------------------------------------------------------|
|--------------------------------------------------------------------|
|--------------------------------------------------------------------|Gtr
|-4-----4--7--9---------1010109--------------------------------------| II
|-2--5--2--5--7---------8-8-8-7--------------------------------------|
|----3---------------------------------------------------------------|





Comments


Popular Dark Tranquillity tabs & chords
Edenspring Bass Tabs
Monochromatic Stains Bass Tabs
The Sun Fired Blanks Bass Tabs
Freecard Tabs
Lethe 1 Tabs
Monochromatic Stains Tabs
Scyth Rage And Roses Tabs
The Emptiness From Which I Fed Tabs
The Sun Fired Blanks Tabs
Tongues Tabs


Song lyrics



↑ Back to top | Tablatures and chords are parodies/interpretations of the original songs. You may use it for private study, scholarship, research or language learning purposes only
© 2014 AZChords.com Contact us | Privacy policy | DMCA | Add/correct tabs | Request tabs | Top 50 tabs