» » »

Dark Tranquillity, Shadow Duet Tabs (ver.1)

Artists:  A B C D E F G H I J K L M N O P Q R S T U V W X Y Z # 

Shadow Duet Tabs (ver.1)

Dark Tranquillity Tabs
 Rating:
4/5 (4 votes)
Shadow Duet lessons Tabs too difficult? Try these video lessons and learn fast
1
                One of my favorite DT songs...enjoy!

Tune down to D#

Riff A (acoustic)
|--------------------------------------------------------|
|--------------------------------------------------------|
|--------------------------------------------------------|
|-----7----------7----------3-----------3----------------|
|---7---7------7---7------3---3-------3---3--------------|
|-5-------5--5-------5--1-------1--1--------1------------|
						(2x)
Riff B
|--------------------------------------------------------|
|--------------------------------------------------------|
|--------------------------------------------------------|
|--------------------------------------------------------|
|-7---7\3------------7---7\3-----------------------------|
|-5---5\1------------5---5\1-----------------------------|

Riff C
|--------------------------------------------------------|
|--------------------------------------------------------|
|--------------------------------------------------------|
|--------------------------------------------------------|
|-7-7-7--7----3-3-3--3----7-7-7--7----3-3-3--3-----------|
|-5-5-5--5----1-1-1--1----5-5-5--5----1-1-1--1-----------|
  x x x       x x x       x x x       x x x
						(2x)
Riff D
|----7h8p7h-------7h8p7h-------7h8p7h---8p7h8h10~--------|
|-10-------10--10-------10--10-------10------------------|
|--------------------------------------------------------|
|--------------------------------------------------------|
|--------------------------------------------------------|
|--------------------------------------------------------|
						(2x)

Riff E
|--------------------------------------------------------|
|--------------------------------------------------------|
|---9-7---------7------9-7--10-9-7-----------------------|
|-7-----10-9-10------7--------------10-------------------|
|--------------------------------------------------------|
|--------------------------------------------------------|

|--------------------------------------------------------|
|--------------------------------------------------------|
|---9-7---------7-9----9-7----------7--------------------|
|-7-----10-9-10------------10-9-10-----------------------|
|--------------------------------------------------------|
|--------------------------------------------------------|
						(4x)
Riff F
|--------------------------------------------------------|
|--------------------------------------------------------|
|--------------------------------------------------------|
|---------9---------------9------------------------------|
|-7-------7-------7-------7------------------------------|
|-5---------------5--------------------------------------|

Riff G
|--------------------------------------------------------|
|--------------------------------------------------------|
|--------------------------------------------------------|
|--------------------------------------------------------|
|-7---7---7-5-------------7---7---7-5--------------------|
|-5-5---5------(8-7)------5-5---5------(8-7)-------------|
						(2x)
small riff missing)

Riff H
|----12-10----------10-------12-10--13-12-10-------------|
|-10-------13-12-13-------10-----------------13----------|
|--------------------------------------------------------|
|--------------------------------------------------------|
|--------------------------------------------------------|
|--------------------------------------------------------|

|----12-10----------10-12---12-10----------10------------|
|-10-------13-12-13---------------13-12-13---------------|
|--------------------------------------------------------|
|--------------------------------------------------------|
|--------------------------------------------------------|
|--------------------------------------------------------|

Riff I
|--------------------------------------------------------|
|--------------------------------------------------------|
|--------------------------------------------------------|
|--------------------------------------------------------|
|-7-5----------------------------------------------------|
|-----8-7-8-7-5------------------------------------------|

Riff J (acoustic)
|--------------------------------------------------------|
|--------------------------------------------------------|
|--------------------------------------------------------|
|--------7-------------3-------------7------------3------|
|---5-7----7-------1-3---3-------5-7---7------1-3---3----|
|-5--------------1-------------5------------1------------|

Riff D
|----7h8p7h-------7h8p7h-------7h8p7h---8p7h8h10~--------|
|-10-------10--10-------10--10-------10------------------|
|--------------------------------------------------------|
|--------------------------------------------------------|
|--------------------------------------------------------|
|--------------------------------------------------------|
						(2x)
Riff J (acoustic)
|--------------------------------------------------------|
|--------------------------------------------------------|
|--------------------------------------------------------|
|--------7-------------3-------------7------------3------|
|---5-7----7-------1-3---3-------5-7---7------1-3---3----|
|-5--------------1-------------5------------1------------|

Riff B
|--------------------------------------------------------|
|--------------------------------------------------------|
|--------------------------------------------------------|
|--------------------------------------------------------|
|-7---7\3------------7---7\3-----------------------------|
|-5---5\1------------5---5\1-----------------------------|

Riff J (acoustic)
|--------------------------------------------------------|
|--------------------------------------------------------|
|--------------------------------------------------------|
|--------7-------------3-------------7------------3------|
|---5-7----7-------1-3---3-------5-7---7------1-3---3----|
|-5--------------1-------------5------------1------------|

Riff D
|----7h8p7h-------7h8p7h-------7h8p7h---8p7h8h10~--------|
|-10-------10--10-------10--10-------10------------------|
|--------------------------------------------------------|
|--------------------------------------------------------|
|--------------------------------------------------------|
|--------------------------------------------------------|
						(2x)
Riff K
|--------------------------------------------------------|
|--------------------------------------------------------|
|--------------------------------------------------------|
|--------------------------------------------------------|
|-7-7-7-7--7p5--------------3-3-3-3--3p1-----------------|
|-5-5-5-5------8p7h8p7p5----1-1-1-1------4p3h4p3p1-------|
  x x x x                   x x x x
						(4x)
Riff L
|--------------------------------------------------------|
|--------------------------------------------------------|
|--------------------------------------------------------|
|--------------------------------------------------------|
|-------------------------4p3p1--------------------------|
|-55555555-8p7p5-11111111--------------------------------|
						(8x)
Riff M
|--------------------------------------------------------|
|--------------------------------------------------------|
|--------------------------------------------------------|
|--------------------------------------------------------|
|-5-7---------7-5----------------------------------------|
|------8p7p5------8-7------------------------------------|
						(4x)
Riff N
|--------------------------------------------------------|
|--------------------------------------------------------|
|--------------------------------------------------------|
|-555-7-8---7p5h------------7p5h-------------------------|
|----------------8---5-7-8-------8-----------------------|
|--------------------------------------------------------|

|--------------------------------------------------------|
|--------------------------------------------------------|
|--------------------------------------------------------|
|-555-7-8---7p5h------------7p5h------7p5h---------------|
|----------------8---5-7-8-------8---------8-------------|
|--------------------------------------------------------|

|--------------------------------------------------------|
|--------------------------------------------------------|
|--------------------------------------------------------|
|-555-7-8---7p5h------------7p5h-------------------------|
|----------------8---5-7-8-------8-----------------------|
|--------------------------------------------------------|

|--------------------------------------------------------|
|--------------------------------------------------------|
|--------------------------------------------------------|
|-555-7-8---7p5h------------7p5h-------------------------|
|----------------8---5-7-8-------8-----------------------|
|--------------------------------------------------------|

Riff O
|--------------------------------------------------------|
|--------------------------------------------------------|
|--------------------------------------------------------|
|--------------------------------------------------------|
|-5-7--------7-------------------------------------------|
|-----8p7p5----8-7-5--8p7h8------------------------------|
						(8x)
Riff L
|--------------------------------------------------------|
|--------------------------------------------------------|
|--------------------------------------------------------|
|--------------------------------------------------------|
|-------------------------4p3p1--------------------------|
|-55555555-8p7p5-11111111--------------------------------|
						(4x)
Riff N
|--------------------------------------------------------|
|--------------------------------------------------------|
|--------------------------------------------------------|
|-555-7-8---7p5h------------7p5h-------------------------|
|----------------8---5-7-8-------8-----------------------|
|--------------------------------------------------------|

|--------------------------------------------------------|
|--------------------------------------------------------|
|--------------------------------------------------------|
|-555-7-8---7p5h------------7p5h------7p5h---------------|
|----------------8---5-7-8-------8---------8-------------|
|--------------------------------------------------------|

|--------------------------------------------------------|
|--------------------------------------------------------|
|--------------------------------------------------------|
|-555-7-8---7p5h------------7p5h-------------------------|
|----------------8---5-7-8-------8-----------------------|
|--------------------------------------------------------|

|--------------------------------------------------------|
|--------------------------------------------------------|
|--------------------------------------------------------|
|-555-7-8---7p5h------------7p5h-------------------------|
|----------------8---5-7-8-------8-----------------------|
|--------------------------------------------------------|

Riff D
|----7h8p7h-------7h8p7h-------7h8p7h---8p7h8h10~--------|
|-10-------10--10-------10--10-------10------------------|
|--------------------------------------------------------|
|--------------------------------------------------------|
|--------------------------------------------------------|
|--------------------------------------------------------|
						(2x)
Acoustic solo missing (4:26 on cd-time)

Solo (only intro part, 4:53 on ct-time)
|--------------------------------------------------------|
|--------------------------------------------------------|
|------------------------7-9-......----------------------|
|---7-9p7h9-10p9p7-10p9----------------------------------|
|-7------------------------------------------------------|
|--------------------------------------------------------|

Riff P
|--------------------------------------------------------|
|--------------------------------------------------------|
|--------------------------------------------------------|
|--------------------------------------------------------|
|-7--7-5--------------3--3-1-----------------------------|
|-5------8-7-8-7-5----1-------4-3-4-3-1------------------|

Riff D
|----7h8p7h-------7h8p7h-------7h8p7h---8p7h8h10~--------|
|-10-------10--10-------10--10-------10------------------|
|--------------------------------------------------------|
|--------------------------------------------------------|
|--------------------------------------------------------|
|--------------------------------------------------------|
						(2x)
Riff F
|--------------------------------------------------------|
|--------------------------------------------------------|
|--------------------------------------------------------|
|---------9---------------9------------------------------|
|-7-------7-------7-------7------------------------------|
|-5---------------5--------------------------------------|

Riff B
|--------------------------------------------------------|
|--------------------------------------------------------|
|--------------------------------------------------------|
|--------------------------------------------------------|
|-7---7\3------------7---7\3-----------------------------|
|-5---5\1------------5---5\1-----------------------------|

Riff K
|--------------------------------------------------------|
|--------------------------------------------------------|
|--------------------------------------------------------|
|--------------------------------------------------------|
|-7-7-7-7--7p5--------------3-3-3-3--3p1-----------------|
|-5-5-5-5------8p7h8p7p5----1-1-1-1------4p3h4p3p1-------|
  x x x x                   x x x x
						(4x)
Riff L
|--------------------------------------------------------|
|--------------------------------------------------------|
|--------------------------------------------------------|
|--------------------------------------------------------|
|-------------------------4p3p1--------------------------|
|-55555555-8p7p5-11111111--------------------------------|
						(8x)
Riff M
|--------------------------------------------------------|
|--------------------------------------------------------|
|--------------------------------------------------------|
|--------------------------------------------------------|
|-5-7---------7-5----------------------------------------|
|------8p7p5------8-7------------------------------------|
						(4x)
Riff N
|--------------------------------------------------------|
|--------------------------------------------------------|
|--------------------------------------------------------|
|-555-7-8---7p5h------------7p5h-------------------------|
|----------------8---5-7-8-------8-----------------------|
|--------------------------------------------------------|

|--------------------------------------------------------|
|--------------------------------------------------------|
|--------------------------------------------------------|
|-555-7-8---7p5h------------7p5h------7p5h---------------|
|----------------8---5-7-8-------8---------8-------------|
|--------------------------------------------------------|

|--------------------------------------------------------|
|--------------------------------------------------------|
|--------------------------------------------------------|
|-555-7-8---7p5h------------7p5h-------------------------|
|----------------8---5-7-8-------8-----------------------|
|--------------------------------------------------------|

|--------------------------------------------------------|
|--------------------------------------------------------|
|--------------------------------------------------------|
|-555-7-8---7p5h------------7p5h-------------------------|
|----------------8---5-7-8-------8-----------------------|
|--------------------------------------------------------|
            
Submit corrections

comments powered by Disqus
↑ Back to top | Dark Tranquillity Tabs for Shadow Duet. Lyrics for acoustic guitar and electric guitar. 1 Tablatures and chords are parodies/interpretations of the original songs. You may use it for private study, scholarship, research or language learning purposes only