>
 >
Of Chaos And Eternal Night

Of Chaos And Eternal Night Guitar Tabs

Dark Tranquillity - Of Chaos And Eternal Night chords, tabs, tablatures, lyrics

Guitar lessons | Add/correct | Request | Top 50 tabs Artists:  A B C D E F G H I J K L M N O P Q R S T U V W X Y Z 0-9

Of Chaos And Eternal Night Guitar Tabs – Dark Tranquillity

CD, Sheet music, Poster

Do you like Of Chaos And Eternal Night? Share with your friends now
Tabs
DARK TRANQUILLITY - OF CHAOS AND ETERNAL NIGHT
                     Copyright 2001 CENTURY MEDIA (re-release)
                            Version 1.0 - June 2002
                                   

tr - trill
~  - vibrato 
ph - pinch harmonic

Guitar one- from the left channel, on top
Guitar two- from the right channel, on bottom                      

Tuning E (E,A,D,G,B,E)

Riff 1 (1 time)
|------------------------------------------------------------------|
|------------------------------------------------------------------|
|-----------------------------------------1010101099999999---------|
|-7777666677779999101099997777------------------------------679----|
|-----------------------------101088888888-------------------------|
|------------------------------------------------------------------|

Riff 1 cont.
|------------------------------------------------------------------|
|------------------------------------------------------------------|
|------------------------------------10--------9-------12--9-------|
|-7777666677779999101099997777-------------6-------7---------------|
|-----------------------------10108--------------------------------|
|------------------------------------------------------------------|
|
|------------------------------------------------------------------|
|----------------------------------------------------------ph------|
|----------------------------------------------------------9\------|
|-7777666677779999101099997777--------7--------9-------12----------|
|-----------------------------10108--------11------12--------------|
|------------------------------------------------------------------|

Riff 1 cont.
|------------------------------------------------------------------|
|------------------------------------------------------------------|
|-----------------------------------------1010101099999999---------|
|-7777666677779999101099997777------------------------------679----|
|-----------------------------101088888888-------------------------|
|------------------------------------------------------------------|
|
|------------------------------------------------------------------|
|------------------------------------------------------------------|
|------------------------------------------------------------------|
|-7777666677779999101099997777----777777771010101099999999--91012--|
|-----------------------------1010---------------------------------|
|------------------------------------------------------------------|

Riff 1 cont.
|------------------------------------------------------------------|
|------------------------------------------------------------------|
|------------------------------------10--------9-------12--9-------|
|-7777666677779999101099997777-------------6-------7---------------|
|-----------------------------10108--------------------------------|
|------------------------------------------------------------------|
|
|------------------------------------------------------------------|
|------------------------------------------------------------------|
|----------------------------------------------------------9-------|
|-7777666677779999101099997777--------7--------9-------12----------|
|-----------------------------10108-------11-------12--------------|
|------------------------------------------------------------------|


Riff 2 (1 time)
|-----------------------------------------------------------------|
|-----------------------------------------------------------------|
|-3333335-----7---3333335-----7---3333335-----7---3333335-----7---|
|-----------------------------------------------------------------|
|-----------------------------------------------------------------|
|-----------------------------------------------------------------|
|
|-----------------------------------------------------------------|
|-----------------------------------------------------------------|
|-3-0-0-5-0-0-7-0-3-0-0-5-0-0-7-0-3-0-0-5-0-0-7-0-3-0-0-5-0-0-7-0-|
|-----------------------------------------------------------------|
|-----------------------------------------------------------------|
|-----------------------------------------------------------------|

Riff 2 cont.
|-----------------------------------------------------------------|
|-----------------------------------------------------------------|
|-------------------------------------------------3-----------5---|
|-3333335-----7---3333335-----7---3333335-----7-------7-5-7-------|
|-----------------------------------------------------------------|
|-----------------------------------------------------------------|
|
|-----------------------------------------------------------------|
|-----------------------------------------------------------------|
|-------------------------------------------------3-----------5---|
|-3-0-0-5-0-0-7-0-3-0-0-5-0-0-7-0-3-0-0-5-0-0-7-------7-5-7-------|
|-----------------------------------------------------------------|
|-----------------------------------------------------------------|

Riff 2 cont.
|-----------------------------------------------------------------|
|-----------------------------------------------------------------|
|-3-0-0-5-0-0-7-0-3-0-0-5-0-0-7-0-3-0-0-5-0-0-7-0-3-0-0-5-0-0-7-0-|
|-----------------------------------------------------------------|
|-----------------------------------------------------------------|
|-----------------------------------------------------------------|

Riff 2 cont.
|-----------------------------------------------------------------|
|-----------------------------------------------------------------|
|------------------------------------------------10---------------|
|-3-0-0-5-0-0-7-0-3-0-0-5-0-0-7-0-3-----5-----7--10---------------|
|---------------------------------3-----5-----7---8---------------|
|---------------------------------1-----3-----5--------rest-------|
|                                 .     .     .
|-----------------------------------------------------------------|
|-----------------------------------------------------------------|
|------------------------------------------------10---------------|
|-7-0-0-8-0-010-0-7-0-0-8-0-010-0-3-----5-----7--10---------------|
|---------------------------------3-----5-----7---8---------------|
|---------------------------------1-----3-----5--------rest-------|
|                                 .     .     .


Riff 3 (1 time)
|------------------------------------------------------------------|
|------------------------------------------------------------------|
|-------------------------5---5---------------------------5---5----|
|-0000000030003000000000003---3---0000000030003000000000003---3----|
|------------------------------------------------------------------|
|------------------------------------------------------------------|
|                          *                              *
|------------------------------------------------------------------|
|-------------------------15--13--------------------------15--13---|
|------------------------------------------------------------------|
|-120000001500150012000000--------120000001500150012000000---------|
|------------------------------------------------------------------|
|------------------------------------------------------------------|

Riff 3 cont.
|------------------------------------------------------------------|
|------------------------------------------------------------------|
|------------------------------------------------------------------|
|-------------------------10--10--------------------------10--10---|
|-000000008000800000000000-8---8--000000008000800000000000-8---8---|
|------------------------------------------------------------------|
|                          *                               *
|------------------------------------------------------------------|
|------------------------------------------------------------------|
|-------------------------14--12--------------------------14--12---|
|------------------------------------------------------------------|
|-120000001500150012000000--------120000001500150012000000---------|
|------------------------------------------------------------------|

*the highest notes of guitar 2 in Riff 3 are not very audible.  Let the 
open string ring out under the high notes. The open note will overpower the
high notes, giving them a very faint sound.  In Riff 3a, guitar 2 mutes the open string right before you hit the high notes. This will allow them to 
come through much clearer and distinct, as Dark Tranquillity did it. 

Riff 3a (1 time) 
|------------------------------------------------------------------|
|-------------------------15--13--------------------------15--13---|
|------------------------------------------------------------------|
|-000000003000300000000000--------000000003000300000000000---------|
|------------------------------------------------------------------|
|------------------------------------------------------------------|
|
|------------------------------------------------------------------|
|-------------------------15--13--------------------------15--13---|
|------------------------------------------------------------------|
|-120000001500150012000000--------120000001500150012000000---------|
|------------------------------------------------------------------|
|------------------------------------------------------------------|

Riff 3a cont.    
|-----------------------------------------------------------------|
|-----------------------------------------------------------------|
|-------------------------14--12----------------------------------|
|-----------------------------------------------------------------|
|-000000008000800000000000--------0000000080008000-8----10----12--|
|-----------------------------------------------------------------|
|                                                  .     .     .
|-----------------------------------------------------------------|
|-----------------------------------------------------------------|
|-------------------------14--12----------------------------------|
|-----------------------------------------------------------------|
|-120000001500150012000000--------1200000015001500-8----10----12--|
|-----------------------------------------------------------------|
                                                   .     .     .

Riff 4 (1 time)
|-----------------------------------------------------------------|
|-----------------------------------------------------------------|
|-5---5---5-7-8---7-8-10---10---7---7-8-5---5---5-7-8-------------|
|---5---5-------5--------8----8---8-------5---5-------5-----------|
|-------------------------------------------------------8----8----|
|---------------------------------------------------------10---10-|
|
|-----------------------------------------------------------------|
|-----------------------------------------------------------------|
|-5-------5---3---3-------------3---3-----------------------------|
|-5-------5---3---3-------------3---3---5-------5---5-------------|
|-3-------3---1---1-------------1---1---5-------5---5---8----8----|
|---------------------------------------3-------3---3-----10---10-|

Riff 4 cont.
|---------------------------|
|---------------------------|
|---------------------------|
|---------7---7---10---10---|
|-7---7-----8---8----7----7-|
|---8---8-------------------|


Riff 4a (1 time)
|-----------------------------------------------------------------|
|-----------------------------------------------------------------|
|-5---5---5-7-8---7-8-10---10---7---7-8-5---5---5-7-8-------------|
|---5---5-------5--------8----8---8-------5---5-------5-----------|
|-------------------------------------------------------8----8----|
|---------------------------------------------------------10---10-|
|
|-----------------------------------------------------------------|
|-----------------------------------------------------------------|
|-5-------5---3---3-------------3---3-----------------------------|
|-5-------5---3---3-------------3---3---5-------5---5---7----7----|
|-3-------3---1---1-------------1---1---5-------5---5-----8----8--|
|---------------------------------------3-------3---3-------------|


Riff 4a cont.
|---------------------------|
|---------------------------|
|---------------------------|
|---------7---7---7-7-7-----|
|-7---7-----8---8-7-7-7-----|
|---8---8---------5-5-5-----|
|
|---------------------------|
|---------------------------|
|---------------------------|
|-5---5---7---7---7-7-7-----|
|---7---7---8---8-7-7-7-----|
|-----------------5-5-5-----|

Repeat Riff 1 (1 time)

Repeat Riff 3 (1 time)

Riff 3b (1 time)
|------------------------------------------------------------------|
|-------------------------15--13--------------------------15--13---|
|------------------------------------------------------------------|
|-000000003000300000000000--------000000003000300000000000---------|
|------------------------------------------------------------------|
|------------------------------------------------------------------|
|
|------------------------------------------------------------------|
|-------------------------15--13--------------------------15--13---|
|------------------------------------------------------------------|
|-120000001500150012000000--------120000001500150012000000---------|
|------------------------------------------------------------------|
|------------------------------------------------------------------|

Riff 3b cont.
|-----------------------------------------------------------------|
|-----------------------------------------------------------------|
|-------------------------14--12----------------------------------|
|-----------------------------------------------------------------|
|-000000008000800000000000--------0000000080008000-0--------------|
|-------------------------------------------------------rest------|
|
|-----------------------------------------------------------------|
|-----------------------------------------------------------------|
|-------------------------14--12----------------------------------|
|-----------------------------------------------------------------|
|-120000001500150012000000--------1200000015001500-12-------------|
|-------------------------------------------------------rest------|


Riff 5 (1 time)
|------------------------------------------|
|------------------------------------------|
|-------------------2--------4tr5---0------|
|-2----------------------------------------|
|-0----------------------------------------|
|------------------------------------------|
|
|------------------------------------------|
|------------------------------------------|
|------------------------------------------|
|-7-6-7-9-10-9-7--------12---9tr10---------|
|----------------10-8---------------10-----|
|------------------------------------------|


Riff 6 (2 times)
|-----------------------------------------------------------------|
|-----------------------------------------------------------------|
|---------------------------------2----------------4tr5---0-------|
|-22222222222222222222222222222222--------------------------------|
|-00000000000000000000000000000000--------------------------------|
|-----------------------------------------------------------------|
|
|-----------------------------------------------------------------|
|-----------------------------------------------------------------|
|-----------------------------------------------------------------|
|-7777666677779999101099997777------------12-------9tr10----------|
|-----------------------------101088888888----------------10------|
|-----------------------------------------------------------------|

Riff 6a (1 time)
|-----------------------------------------------------------------|
|-----------------------------------------------------------------|
|---------------------------------2----------------4tr5---0-------|
|-22222222222222222222222222222222--------------------------------|
|-00000000000000000000000000000000--------------------------------|
|-----------------------------------------------------------------|
|
|-----------------------------------------------------------------|
|-----------------------------------------------------------------|
|-----------------------------------------------------------------|
|-7777666677779999101099997777--------12--109---------10--9-------|
|-----------------------------1010-8---------1210-12--------10----|
|-----------------------------------------------------------------|

Riff 2a (1 time)
|-----------------------------------------------------------------|
|-----------------------------------------------------------------|
|-3333335-----7---3333335-----7---3333335-----7---3333335-----7---|
|-----------------------------------------------------------------|
|-----------------------------------------------------------------|
|-----------------------------------------------------------------|
|
|--**----lots--of---whammy---bar----------------------------**----|
|-----------------------------------------------------------------|
|-19~~~~~~~~~~~~~~~---------------17p1517p1517p1517p1515h17p15----|
|-----------------------------------------------------------------|
|-----------------------------------------------------------------|
|-----------------------------------------------------------------|

Riff 2a cont.
|-----------------------------------------------------------------|
|-----------------------------------------------------------------|
|-----------------------------------------------------------------|
|-3333335-----7---3333335-----7---3333335-----7---3333335-----7---|
|-----------------------------------------------------------------|
|-----------------------------------------------------------------|
|
|-----------------------------------------------------------------|
|-----------------------------------------------------------------|
|-12fbr-----------14hbr-----------15fbr---17fbr---19hbr-----------|
|-----------------------------------------------------------------|
|-----------------------------------------------------------------|
|-----------------------------------------------------------------|

Riff 2a cont.
|-----------------------------------------------------------------|
|-----------------------------------------------------------------|
|-1900001700001900190000170000190019000017000019001900001700001900|
|-----------------------------------------------------------------|
|-----------------------------------------------------------------|
|-----------------------------------------------------------------|
|
|-----------------------------------------------------------------|
|-----------------------------------------------------------------|
|-3333335-----7---3333335-----7---3333335-----7---3333335-----7---|
|-----------------------------------------------------------------|
|-----------------------------------------------------------------|
|-----------------------------------------------------------------|

Riff 2a cont.
|-----------------------------------------------------------------|
|-----------------------------------------------------------------|
|-------------------------------------------------20fb-----\------|
|-190000170000240019000017000019001900001700001900----------------|
|-----------------------------------------------------------------|
|-----------------------------------------------------------------|

|-----------------------------------------------------------------|
|-----------------------------------------------------------------|
|-----------------------------------------------------------------|
|-3333335-----7---3333335-----7---3333335-----7---3-----5-----7---|
|-----------------------------------------------------------------|
|-----------------------------------------------------------------|
                                                  .     .     .
Repeat Riff 4 (1 time)

Riff 4b (1 time)
|-----------------------------------------------------------------|
|-----------------------------------------------------------------|
|-5---5---5-7-8---7-8-10---10---7---7-8-5---5---5-7-8-------------|
|---5---5-------5--------8----8---8-------5---5-------5-----------|
|-------------------------------------------------------8----8----|
|---------------------------------------------------------10---10-|
|
|-----------------------------------------------------------------|
|-----------------------------------------------------------------|
|-5-------5---3---3-------------3---3-----------------------------|
|-5-------5---3---3-------------3---3---5-------5---5---7----7----|
|-3-------3---1---1-------------1---1---5-------5---5-----8----8--|
|---------------------------------------3-------3---3-------------|

Riff 4b cont.
|---------------------------|
|---------------------------|
|---------------------------|
|---------7---7---10--9-----|
|-7---7-----8---8--8--7-----|
|---8---8-------------------|
|
|---------------------------|
|---------------------------|
|---------------------------|
|-5---5---7---7---10--9-----|
|---7---7---8---8-----------|
|---------------------------|


Riff 7 (1 time)
|-----------------------------------------------------------------|
|-----------------------------------------------------------------|
|-----------------------------------------------------------------|
|-9---------------9---------------7---------------7---------------|
|---------7-7---7---------7-7---7---------5-5---5---------5-5---5-|
|-----------------------------------------------------------------|
|
|-----------------------------------------------------------------|
|-----------------------------------------------------------------|
|-12-----11h12h14-12-----11h12h14-11------9h11h12-11------9h11h12-|
|-----------------------------------------------------------------|
|-----------------------------------------------------------------|
|-----------------------------------------------------------------|

Riff 7 cont.
|-----------------------------------------------------------------|
|-----------------------------------------------------------------|
|-----------------------------------------------------------------|
|-9---------------9---------------7---------------7---------------|
|---------7-7---7---------7-7---7---------5-5---5---------5-5---5-|
|-----------------------------------------------------------------|
|
|-----------------------------------------------------------------|
|-----------------------------------------------------------------|
|-12-----11h12h14-12-----11h12h14-11------9h11h12-7-----------7---|
|-----------------------------------------------------------------|
|-----------------------------------------------------------------|
|-----------------------------------------------------------------|

Riff 8 (1 time)
|-----------------------------------------------------------------|
|-----------------------------------------------------------------|
|-9---------------9---------------7---------------7---------------|
|---------9-9---9---------9-9---9---------7-7---7---------7-7---7-|
|-----------------------------------------------------------------|
|-----------------------------------------------------------------|
|
|-----------------------------------------------------------------|
|-----------------------------------------------------------------|
|-12-----11h12h14-12-----11h12h14-11------9h11h12-11------9h11h12-|
|-----------------------------------------------------------------|
|-----------------------------------------------------------------|
|-----------------------------------------------------------------|

Riff 8 cont.
|-----------------------------------------------------------------|
|-----------------------------------------------------------------|
|-9---------------9---------------7---------------7---------------|
|---------9-9---9---------9-9---9---------7-7---7-----------------|
|-----------------------------------------------------------------|
|-----------------------------------------------------------------|
|
|-----------------------------------------------------------------|
|-----------------------------------------------------------------|
|-12-----11h12h14-12-----11h12h14-11------9h11h12-7---------------|
|-----------------------------------------------------------------|
|-----------------------------------------------------------------|
|-----------------------------------------------------------------|

Riff 9 (1 time)
|-----------------------------------------------------------------|
|-12-----10h12h13-12------8h10h12-10------8h10h12-10-----10h12h13-|
|-----------------------------------------------------------------|
|-----------------------------------------------------------------|
|-----------------------------------------------------------------|
|-----------------------------------------------------------------|
|
|-----------------------------------------------------------------|
|-----------------12----10----------------------------------------|
|-12-----11h12h14------------12---11------9h11h12-11------\-------|
|-----------------------------------------------------------------|
|-----------------------------------------------------------------|
|-----------------------------------------------------------------|

Riff 9 cont.
|-----------------------------------------------------------------|
|-12-----10h12h13-12------8h10h12-10--------------12--------------|
|-----------------------------------------9h11h12-----------------|
|-----------------------------------------------------------------|
|-----------------------------------------------------------------|
|-----------------------------------------------------------------|
|
|-----------------------------------------------------------------|
|-----------------12----12----------------------------------------|
|-12-----11h12h14------------12---11------9h11h12-11------\-------|
|-----------------------------------------------------------------|
|-----------------------------------------------------------------|
|-----------------------------------------------------------------|

Riff 10 (2 times)
|-----------------------------------------------------------------|
|-----------------------------------------------------------------|
|-----------------------------------------------------------------|
|-----------------------------------------------------------------|
|-7---------------7---------------5---------------5---------------|
|---------7--7--7---------7--7--7---------5--5--5---------5--5--5-|
|
|-----------------------------------------------------------------|
|-----------------------------------------------------------------|
|-----------------------------------------------------------------|
|-9---------------9---------------7---------------7---------------|
|---------7--7--7---------7--7--7---------5--5--5---------5--5--5-|
|-----------------------------------------------------------------|

Riff 10 cont.
|-----------------------------------------------------------------|
|-----------------------------------------------------------------|
|-----------------------------------------------------------------|
|-----------------------------------------------------------------|
|-10--------------10--------------9---------------9---10---12-----|
|---------7--7--7---------7--7--7---------5--5--5-----------------|
|
|-----------------------------------------------------------------|
|-----------------------------------------------------------------|
|-----------------------------------------------------------------|
|-9---------------9-----------------------------------------------|
|---------7--7--7---------7--7--7-9---------------5----7----9-----|
|-----------------------------------------7--7--7-----------------|

Riff 11 (1 time)
|-------------------------------------------|
|-------------------------------------------|
|-------------------------------------------|
|--9-10--9-10--9--7-------------------------|
|-------------------10-9--7---6---7---9-----|
|-------------------------------------------|
|
|-------------------------------------------|
|-12-13-12-13-12-10-------------------------|
|-------------------12-11-9---8---9---11----|
|-------------------------------------------|
|-------------------------------------------|
|-------------------------------------------|

Riff 12 (1 time)
|---------------------------5---------------------------------------|
|-0-5-8-0-12-8-0-10-7-0-4-7---0-8-7-5-0-12-13-12-0-10-0-7h8p7-5-3-5-|
|-------------------------------------------------------------------|
|-------------------------------------------------------------------|
|-------------------------------------------------------------------|
|-------------------------------------------------------------------|

Riff 12 cont.
|-------------------------------7-5-------------5---------------7-5-----|
|-0-7-8-5-0-7-8---0-8-7-5-0-5-8-----8-7-7-0-4-7---8-7-5-5-0-5-8-----8-7-|
|---------------5-------------------------------------------------------|
|-----------------------------------------------------------------------|
|-----------------------------------------------------------------------|
|-----------------------------------------------------------------------|

Riff 11a (1 time)
|-------------------------------------------|
|-12-13-12-13-12-10-------------------------|
|-------------------12-11-9---8---9---11----|
|-------------------------------------------|
|-------------------------------------------|
|-------------------------------------------|


Riff 13 (1 time)
|------------------------------------------------------------|
|------------------------------------------------------------|
|------------------------------------------------------------|
|-----------------------------9-7-9-7--7--7--7---------------|
|-7----9-10-9-7-7----9-10-9-7-------------------5--5--5--5---|
|---7-7-----------7-7----------------------------------------|
|
|------------------------------------------------------------|
|-5-0-5-7-8-7-5-7-5-0-7-8-7-5-7-5-7--------------------------|
|------------------------------------------------------------|
|-----------------------------------12-0-12-14-15-14-12-14---|
|------------------------------------------------------------|
|------------------------------------------------------------|

Riff 13a (2 times)
|------------------------------------------------------------|
|------------------------------------------------------------|
|------------------------------------------------------------|
|-----------------------------9-7-9-7--7--7--7---------------|
|-7----9-10-9-7-7----9-10-9-7-------------------5--5--5--5---|
|---7-7-----------7-7----------------------------------------|
|
|------------------------------------------------------------|
|---0-5-7-8-7-5-7-5-0-7-8-7-5-7-5-7--------------------------|
|------------------------------------------------------------|
|\----------------------------------12-0-12-14-15-14-12-14---|
|------------------------------------------------------------|
|------------------------------------------------------------|
 *slide down from the 14 at the end of the riff

Riff 13b (1 time)
|-----------------------------------|
|-----------------------------------|
|-----------------------------------|
|-----------------------------9-7-9-|
|-7----9-10-9-7-7----9-10-9-7-------|
|---7-7-----------7-7---------------|
|
|-----------------------------------|
|-5-0-5-7-8-7-5-7-5-0-7-8-7-5-7-5-7-|
|-----------------------------------|
|-----------------------------------|
|-----------------------------------|
|-----------------------------------|

Repeat Riff 12 (1 time)

Riff 11b
|-------------------------------------------|
|-12-13-12-13-12-10-------------------------|
|-------------------12-11-9---8---9---rest--|
|-------------------------------------------|
|-------------------------------------------|
|-------------------------------------------|


Riff 14 (1 time)
|---------------------------------------------------------------|
|---------------------------------------------------------------|
|---------------------------------------------------------------|
|---------------------------------------------------------------|
|---------------------------------------------------------------|
|-8/10-10-10-10-8-6-5-6-----3-3---5-6-8-8-8-8-8-8-6-5-3---------|

Riff 15 (1 time)
|---------------------------------------------------------------|
|---------------------------------------------------------------|
|---------------------------------------------------------------|
|---------------------------------------------------------------|
|-10-6-6-10-6-6-10-6-10-8-8-10-8-8-10-8-10-13-13-10-13-13-10-13-|
|---------------------------------------------------------------|

Riff 15 cont.
|--------------|
|--------------|
|--------------|
|-10-12-12-----|
|--------------|
|--------------|
|
|--------------|
|--------------|
|-------ph-----|
|-10-12-12~----|
|--------------|
|--------------|

Riff 14a (1 time)
|---------------------------------------------------------------|
|---------------------------------------------------------------|
|---------------------------------------------------------------|
|---------------------------------------------------------------|
|---------------------------------------------------------------|
|-8/10-10-10-10-8-6-5-6-----3-3---5-6-8-8-8-8-8-8-6-5-3---------|
|
|---------------------------------------------------------------|
|---------------------------------------------------------------|
|---------------------------------------------------------------|
|---------------------------------------------------------------|
|-6/8--8--8--8--6-5-3-5-----1-1---3-5-6-6-6-6-6-6-5-3-5---------|
|---------------------------------------------------------------|

Repeat Riff 15 (1 time)

Riff 16 (1 time)
|-----------------------------------------------------------------|
|-----------------------------------------------------------------|
|-----------------------------------------------------------------|
|-----------------------------------------------------------------|
|-----------------------------------------------------------------|
|-8/10-10-10-10-8-6-5-6----3---33--6/8-8-8-8-8-8-6-5-3---------33-|
|                              ..                              ..
|-----------------------------------------------------------------|
|-----------------------------------------------------------------|
|-3-000-5-000-7-0-3-000-5-000-7-0-3-000-5-000-7-0-3-000-5-000-7-0-|
|-----------------------------------------------------------------|
|-----------------------------------------------------------------|
|-----------------------------------------------------------------|

Riff 15a (1 time)
|-----------------------------------------------------------------------|
|-----------------------------------------------------------------------|
|-----------------------------------------------------------------------|
|-----------------------------------------------------------------------|
|-10-6-6-10-6-6-10-6-10-8-8-10-8-8-10-8-10-13-13-10-13-13-10-13-10------|
|------------------------------------------------------------------rest-|
|
|-----------------------------------------------------------------------|
|-----------------------------------------------------------------------|
|-----------------------------------------------------------------------|
|--8-5-5--8-5-5--8-5--8-7-7--8-7-7--8-7--5--7--7--5--7--7--5--7--5------|
|-----------------------------------------------------------------------|
|------------------------------------------------------------------rest-|


Riff 1a (1 time)
|------------------------------------------------------------------|
|------------------------------------------------------------------|
|-----------------------------------------1010101099999999---------|
|-7777666677779999101099997777------------------------------679----|
|-----------------------------101088888888-------------------------|
|------------------------------------------------------------------|
|
|------------------------------------------------------------------|
|------------------------------------------------------------------|
|------------------------------------------------------------------|
|------------------------------------------------------------------|
|------------------------------------------------------------------|
|------------------------------------------------------------------|

Riff 1a cont.
|------------------------------------------------------------------|
|------------------------------------------------------------------|
|------------------------------------10--------9-------12--9-------|
|-7777666677779999101099997777-------------6-------7---------------|
|-----------------------------10108--------------------------------|
|------------------------------------------------------------------|
|
|------------------------------------------------------------------|
|------------------------------------------------------------------|
|------------------------------------------------------------------|
|-2---2---2---2---2---2---2---2---2-2-2-2-2-2-2-2-2-2-2-2-2-2-2-2--|
|-0---0---0---0---0---0---0---0---0-0-0-0-0-0-0-0-0-0-0-0-0-0-0-0--|
|------------------------------------------------------------------|
  .   .   .   .   .   .   .   .   . . . . . . . . . . . . . . . .

Repeat Riff 3 (2 times)

Riff 17 (1 time)
|---------------------------------|
|---------------------------------|
|---------------------------------|
|-7---6---7---9--10---9---7-------|
|----------------------------10---|
|---------------------------------|
| .   .   .   .   .   .   .   .
|---------------------------------|
|---------------------------------|
|---------------------------------|
|---------------------------------|
|-0---0---0---0---0---0---0---0---|
|---------------------------------|
  .   .   .   .   .   .   .   .

Riff 1b (1 time)
|------------------------------------------------------------------|
|------------------------------------------------------------------|
|-----------------------------------------1010101099999999---------|
|-7777666677779999101099997777------------------------------679----|
|-----------------------------101088888888-------------------------|
|------------------------------------------------------------------|
|
|------------------------------------------------------------------|
|------------------------------------------------------------------|
|-2-------------------------------7---------------9----------------|
|-2----------------------------------------------------------------|
|-0-------------------------------5---------------7----------------|
|------------------------------------------------------------------|

Riff 1b cont.
|------------------------------------------------------------------|
|------------------------------------------------------------------|
|------------------------------------10--------9-------12--9-------|
|-7777666677779999101099997777-------------6-------7---------------|
|-----------------------------10108--------------------------------|
|------------------------------------------------------------------|
|
|------------------------------------------------------------------|
|------------------------------------------------------------------|
|-2------------------------------10---------------7--10---9---7----|
|-2----------------------------------------------------------------|
|-0-------------------------------8---------------5---8---7---5----|
|------------------------------------------------------------------|

Riff 1b cont.
|------------------------------------------------------------------|
|------------------------------------------------------------------|
|-----------------------------------------1010101099999999---------|
|-7777666677779999101099997777------------------------------679----|
|-----------------------------101088888888-------------------------|
|------------------------------------------------------------------|
|
|------------------------------------------------------------------|
|------------------------------------------------------------------|
|-2-------------------------------7---7---7---7---9---9---9---9----|
|-2----------------------------------------------------------------|
|-0-------------------------------5---5---5---5---7---7---7---7----|
|------------------------------------------------------------------|

Riff 1b cont.
|------------------------------------------------------------------|
|------------------------------------------------------------------|
|------------------------------------10--------9-------12--9-------|
|-7777666677779999101099997777-------------6-------7---------------|
|-----------------------------10108--------------------------------|
|------------------------------------------------------------------|
|
|------------------------------------------------------------------|
|------------------------------------------------------------------|
|-2------------------------------10--------------------------------|
|-2-----------------------------------------------7--10---9--------|
|-0-------------------------------8---------------5---8---7--------|
|------------------------------------------------------------------|
                                                  .   .   .





Comments


Popular Dark Tranquillity tabs & chords
Punish My Heaven Bass Tabs
There In Bass Tabs
Lethe Tabs
Monochromatic Stains Tabs
Punish My Heaven Tabs
Rundown Tabs
Scyth Rage And Roses Tabs
The Emptiness From Which I Fed Tabs
The Sun Fired Blanks Tabs
To A Bitter Halt Tabs


Song lyrics



↑ Back to top | Tablatures and chords are parodies/interpretations of the original songs. You may use it for private study, scholarship, research or language learning purposes only
© 2014 AZChords.com Contact us | Privacy policy | DMCA | Add/correct tabs | Request tabs | Top 50 tabs