>
 >
Monochromatic Stains

Monochromatic Stains Bass Tabs

Dark Tranquillity - Monochromatic Stains chords, tabs, tablatures, lyrics

Guitar lessons | Add/correct | Request | Top 50 tabs Artists:  A B C D E F G H I J K L M N O P Q R S T U V W X Y Z 0-9

Monochromatic Stains Bass Tabs – Dark Tranquillity

CD, Sheet music, Poster

Do you like Monochromatic Stains? Share with your friends now
Bass TabsTabs
Tune down

E ||-----------------|--------------------|-----------------|
B ||-----------------|--------------------|-----------------|
F#||--7--------------|--------------0--2--|--3--------------|
C#||--0--------------|--0-0---------------|-----------------|


                                                                             
----------------------|--------------------------|--------------------------|
----------------------|--------------------------|--------------------------|
--3---3--3--5---------|--7-----7-----------------|--7-----7-----------------|
----------------------|----0-0----0--0--0-0------|----0-0----0--0--0-0------|


                                                              
----------------------------------|--------------------------|
----------------------------------|--------------------------|
--3-3-3-3-3-3-3-3-3-3-3-3-3-3-3-3-|--3-3-3-3-3-3-3-5---------|
----------------------------------|--------------------------|


                                                      
--------------------------|--------------------------|
--------------------------|--------------------------|
--------------------------|--------------------------|
--0-0-0---------0-0-0-0-0-|--0-0-0---------0-0-0-0-0-|


                                                              
--------------------------4-------|--------------------------|
--------5---4---5-----5-------4-5-|--------5---4-5-----------|
----3-3---3---3---3-3---3---3-----|----3-3---3-----5---------|
--0-------------------------------|--0-----------------------|


                                                                          
---------------------|--------------------------|------------------------|
---------------------|--------------------------|------------------------|
---------------------|------------------5--3--2-|------------------------|
--0-0-0--------------|---0-0-0------0-0---------|--0-0-0------0-0-0------|


                                                               
---------------------------|----------------------------------|
---------------------------|----------------------------------|
-------------------5--3--2-|--7-----7---5---7-7-----7---5---3-|
--0-0-0------0-0-0---------|----0-0---0---0-----0-0---0---0---|


                                                                    
--------------------------------|----------------------------------|
--------------------------------|----------------------------------|
--3-----7---5---7-7-----5--3--2-|--7-----7---5---7-7-----7---5---3-|
----0-0---0---0-----0-0---------|----0-0---0---0-----0-0---0---0---|


                                                                
--------------------------------|------------------------------|
--------------------------------|------------------------------|
--3-----7---5---7-7-----5--3--2-|------------------------------|
----0-0---0---0-----0-0---------|--0-0--0-0-0--0-0-0--0-0-0--0-|


                                                                      
----------------------------------|----------------------------------|
----------------------------------|----------------------------------|
----------------------------------|----------------------------------|
--5-5-5-5-5-5-5-5-5-5-5-5-5-5-5-5-|--5-5-5-5-5-5-5-5-5-5-5-5-5-5-5-5-|


                                                                      
----------------------------------|------------------4-----2---------|
----------------------------------|------5---4-5-----------------5-4-|
--3-3-3-3-3-3-3-3-3-3-3-3-3-3-3-3-|--2-2---2-----2-2---2-2---2-2-----|
----------------------------------|----------------------------------|


                                                                      
----------------------------------|----------------------------------|
----------------------------------|----------------------------------|
--7-7-7-7-7-7-7-7-7-7-7-7-7-7-7-7-|----------------------------------|
----------------------------------|--5-5-5-5-5-5-5-5-5-5-5-5-5-5-5-5-|


                                                                      
----------------------------------|------------------4-----2---------|
----------------------------------|------5---4-5-----------------5-4-|
--3-3-3-3-3-3-3-3-3-3-3-3-3-3-3-3-|--2-2---2-----2-2---2-2---2-2-----|
----------------------------------|----------------------------------|


                                                                      
----------------------------------|------------------7---------------|
------5---4-5-----------------5-4-|------5---4-5-----------------5-4-|
------------------3---------------|--5-5---5-----5-5---5-5---5-5-----|
--3-3---3-----3-3---3-3-2-3-3-----|------------------------3---------|


                                                                        
----------------------------------||-----------------------------------|
------5---4-5---------------------||*----------------------------------|
--3-3---3-----3-3-----------------||*--------2---3---2-------2---3---2-|
------------------7-8-7-5-7-5-3-2-||---0-0-0---0---0---0-0-0---0---0---|


                                                                        
-----------------------------------||----------------------------------|
----------------------------------*||----------------------------------|
--------2---3---2-------5---3---2-*||--7-----7---5---7-7-----7---5---3-|
--0-0-0---0---0---0-0-0---0---0----||----0-0---0---0-----0-0---0---0---|


                                                                    
--------------------------------|----------------------------------|
--------------------------------|----------------------------------|
--3-----7---5---7-7-----5--3--2-|--7-----7---5---7-7-----7---5---3-|
----0-0---0---0-----0-0---------|----0-0---0---0-----0-0---0---0---|


                                                                
--------------------------------|------------------------------|
--------------------------------|------------------------------|
--3-----7---5---7-7-----5--3--2-|------------------------------|
----0-0---0---0-----0-0---------|--0-0--0-0-0--0-0-0--0-0-0--0-|


                                                                      
----------------------------------|----------------------------------|
----------------------------------|----------------------------------|
--7-7-7-7-7-7-7-7-7-7-7-7-7-7-7-7-|----------------------------------|
----------------------------------|--5-5-5-5-5-5-5-5-5-5-5-5-5-5-5-5-|


                                                                      
----------------------------------|------------------4-----2---------|
----------------------------------|------5---4-5-----------------5-4-|
--3-3-3-3-3-3-3-3-3-3-3-3-3-3-3-3-|--2-2---2-----2-2---2-2---2-2-----|
----------------------------------|----------------------------------|


                                                                      
----------------------------------|----------------------------------|
----------------------------------|----------------------------------|
----------------------------------|----------------------------------|
--0-0-0-0-0-0-0-0-0-0-0-0-0-0-0-0-|--5-5-5-5-5-5-5-5-5-5-5-5-5-5-5-5-|


                                                                      
----------------------------------|------------------4-----2---------|
----------------------------------|------5---4-5-----------------5-4-|
--3-3-3-3-3-3-3-3-3-3-3-3-3-3-3-3-|--2-2---2-----2-2---2-2---2-2-----|
----------------------------------|----------------------------------|


                                                                      
----------------------------------|------------------7---------------|
------5---4-5-----------------5-4-|------5---4-5-----------------5-4-|
------------------3---------------|--5-5---5-----5-5---5-5---5-5-----|
--3-3---3-----3-3---3-3-2-3-3-----|------------------------3---------|


                                                      
----------------------------------|------------------|
------5---4-5---------------------|------------------|
--3-3---3-----3-3-----------------|--2-3-2-0-2-0-----|
------------------7-8-7-5-7-5-3-2-|--------------3-2-|


                                                                    
-----------------------------|-------------------------------------|
-----------------------------|-------------------------------------|
--2-----3---0---2-----3--0-3-|--2-----3---0---2-----3--0-0-0-2-2-2-|
----0-0---0---0---0-0--------|----0-0---0---0---0-0----------------|


                                                                            
---------------------|--5-------5---------------|--------------------------|
---------------------|--------------------------|--------------------------|
--3-------3-3--------|----3-3-3---3-3-5---------|--------------------------|
---------------------|--------------------------|--0-0-0---------0-0-0-0-0-|


                                                                              
-------------------------|------------------------|--------------------------|
-------------------------|------------------------|--------5---4-5-----------|
-----------------3-3---3-|--3------3-3-3-3------3-|----3-3---3-----5---------|
--0-0-0------------------|------------------------|--2-----------------------|


                                                                    
-----------------------------|-------------------------------------|
-----------------------------|-------------------------------------|
--2-----3---0---2-----3--0-3-|--2-----3---0---2-----3--0-0-0-2-2-2-|
----0-0---0---0---0-0--------|----0-0---0---0---0-0----------------|


                                                                       
---------------------|--5-------5---------------|---------------------|
---------------------|--------------------------|---------------------|
--3-------3-3--------|----3-3-3---3-3-5---------|---------------------|
---------------------|--------------------------|--0-0-0--------------|


                                                                
----------------------------|----------------------------------|
----------------------------|----------------------------------|
------------------5---3---2-|--7-----7---5---7-7-----7---5---3-|
---0-0-0------0-0---0---0---|----0-0---0---0-----0-0---0---0---|


                                                                    
--------------------------------|----------------------------------|
--------------------------------|----------------------------------|
--3-----7---5---7-7-----5--3--2-|--7-----7---5---7-7-----7---5---3-|
----0-0---0---0-----0-0---------|----0-0---0---0-----0-0---0---0---|


                                                                
--------------------------------|------------------------------|
--------------------------------|------------------------------|
--3-----7---5---7-7-----5--3--2-|------------------------------|
----0-0---0---0-----0-0---------|--0-0--0-0-0--0-0-0--0-0-0--0-|


                                                                      
----------------------------------|----------------------------------|
----------------------------------|----------------------------------|
--7-7-7-7-7-7-7-7-7-7-7-7-7-7-7-7-|----------------------------------|
----------------------------------|--5-5-5-5-5-5-5-5-5-5-5-5-5-5-5-5-|


                                                                      
----------------------------------|------------------4-----2---------|
----------------------------------|------5---4-5-----------------5-4-|
--3-3-3-3-3-3-3-3-3-3-3-3-3-3-3-3-|--2-2---2-----2-2---2-2---2-2-----|
----------------------------------|----------------------------------|


                                                     
----------------------------------------------------|
----------------------------------------------------|
--7-----7-----7-------------7---------7---------7-7-|
----0-0---0-0---0-0-0-0-0-0---0-0-0-0---0-0-0-0-----|


                                                     
----------------------------------------------------|
----------------------------------------------------|
--5-5-5-5-5-5-5-5-5-5-5-5-5-5-5-5-5-5-5-5-5-5-5-5-5-|
----------------------------------------------------|


                                                     
----------------------------------------------------|
----------------------------------------------------|
--3-3-3-3-3-3-3-3-3-3-3-3-3-3-3-3-3-3-3-3-3-3-3-3-3-|
----------------------------------------------------|


                                    
---------------------------|------||
---------------------------|------||
---------7---------7-------|------||
--0-0--0---0-0-0-0-0-------|------||





Comments


Popular Dark Tranquillity tabs & chords
Haven Bass Tabs
Insanity's Crescendo Bass Tabs
There In Bass Tabs
A Closer End Tabs
Insanity's Crescendo Tabs
Lost To Apathy Tabs
Scyth Rage And Roses Tabs
The Mind's Eye Tabs
Tongues Tabs
Winter Triangle Intro Tabs


Song lyrics



↑ Back to top | Tablatures and chords are parodies/interpretations of the original songs. You may use it for private study, scholarship, research or language learning purposes only
© 2014 AZChords.com Contact us | Privacy policy | DMCA | Add/correct tabs | Request tabs | Top 50 tabs