>
 >
Monochromatic Stains

Monochromatic Stains Guitar Tabs

Dark Tranquillity - Monochromatic Stains chords, tabs, tablatures, lyrics

Guitar lessons | Add/correct | Request | Top 50 tabs Artists:  A B C D E F G H I J K L M N O P Q R S T U V W X Y Z 0-9

Monochromatic Stains Guitar Tabs – Dark Tranquillity

CD, Sheet music, Poster

Do you like Monochromatic Stains? Share with your friends now
Bass TabsTabs
Track: Monochromatic Stains

Tuning: "C#"F#"B"E"G#"C#"


Riff 1-A                                         Gtr I
|--7-0-0-8-0-5-7-0-0-8-0-5-7-0-0-8-0-5-7-0-0-8-0-5-7--|
|-----------------------------------------------------|
|-----------------------------------------------------|
|-----------------------------------------------------|
|-----------------------------------------------------|
|-----------------------------------------------------|
|                                                     |
|                                                     |
|--0-0-8-0-5-7-0-0-8-0-5-7-0-0-8-0-5-7-0-0-8-0-5-7-8--|
|-----------------------------------------------------|
|-----------------------------------------------------|
|-----------------------------------------------------|
|-----------------------------------------------------|
|-----------------------------------------------------|

                                                Gtr II
|-----------------------------------------------------|
|-----------------------------------------------------|
|-----------------------------------------------------|
|---2-----------------2-2x-----------------2---4---5--|
|---2-----------------2-2x-----------------0---2---3--|
|---0-----------------0-0x----------------------------|
|                                                     |
|                                                     |
|-----------------------------------------------------|
|-----------------------------------------------------|
|-----------------------------------------------------|
|--------------------5---5---5--5--7---7-7-7-7-7-7-7--|
|--------------------3---3---3--3--5---5-5-5-5-5-5-5--|
|-----------------------------------------------------|



Riff 1-B                                               Gtr I
|--0-0-0-8-0-5-7-0-0-8-0-5-7-8-0-0-0-8-0-5-7-0-0-8-0-5-7-8--|
|-----------------------------------------------------------|
|-----------------------------------------------------------|
|-----------------------------------------------------------|
|-----------------------------------------------------------|
|-----------------------------------------------------------|
|                                                           |
|                                                           |
|--0-0-0-8-0-5-7-0-0-8-0-5-7-8-0-0-0-8-0-5-7-0-0-8-0-5-7-8--|
|-----------------------------------------------------------|
|-----------------------------------------------------------|
|-----------------------------------------------------------|
|-----------------------------------------------------------|
|-----------------------------------------------------------|

                                                      Gtr II
|-----------------------------------------------------------|
|-----------------------------------------------------------|
|-----------------------------------------------------------|
|--2-2-2----------------------2-2-2-------------------------|
|--2-2-2----------------------2-2-2-------------------------|
|--0-0-0----------------------0-0-0-------------------------|
|                                                           |
|                                                           |
|-----------------------------------------------------------|
|-----------------------------------------------------------|
|-----------------------------------------------------------|
|--5-5-5-5--5--5--5-5-5-5-5-5-5--5-5-5-5--5--5--7-----------|
|--3-3-3-3--3--3--3-3-3-3-3-3-3--3-3-3-3--3--3--5-----------|
|-----------------------------------------------------------|


Riff 2
|-----------------------------------------------------------|
|-----------------------------------------------------------|
|-----------------------------------------------------------|
|-----------------------------------------------------------|
|--2-2-2--------------2-2-2-2-2-2-2--------------2-2-2-2-2--|
|--0-0-0--------------0-0-0-0-0-0-0--------------0-0-0-0-0--|
   . . .              . . . . . . .              . . . . .

Riff 3                                                 Gtr I
|-----------------------------------------------------------|
|-----------------------------------------------------------|
|-----------------------------------------------------------|
|--0-0-5-0-4-0-0-5-0-0-7-0-0-9-0-4-5-0-5-0-4-0-4-5-7~-------|
|-----------------------------------------------------------|
|-----------------------------------------------------------|

                                                      Gtr II
|--0-0-3-0-2-0-0-3-0-0-5-0-0-7-0-2-3-0-3-0-2-0-2-3-5~-------|
|-----------------------------------------------------------|
|-----------------------------------------------------------|
|-----------------------------------------------------------|
|-----------------------------------------------------------|
|-----------------------------------------------------------|


Riff 4-A
|--------------------------------------------------------------|
|--------------------------------------------------------------|
|--------------------------------------------------7---5---4---|
|--------------------------------------------------------------|
|--2-2-2-----------------------2-2-2-----------2-2-------------|
|--0-0-0-----------------------0-0-0-----------0-0-------------|
   . . .                       . . .           . .

Riff 4-B
|--------------------------------------------------------------|
|--------------------------------------------------------------|
|--------------------------------------------------7---5---4---|
|--------------------------------------------------------------|
|--2-2-2---------2-2-2---------2-2-2---------2-2-2-------------|
|--0-0-0---------0-0-0---------0-0-0---------0-0-0-------------|
   . . .         . . .         . . .         . . .

Riff 5
|-------------------------------------------------------------|
|-------------------------------------------------------------|
|-------4--5--4-------4--5--4-------4--5--4-------7---5---4---|
|--2222-2--3--2--2222-2--3--2--2222-2--3--2--2222-5---3---2---|
|-------------------------------------------------------------|
|-------------------------------------------------------------|
   ....          ....          ....          ....

Fill 1
|---------------------------------|
|---------------------------------|
|---------------------------------|
|---------------------------------|
|----2-2----2-2----2-2----2-2-----|
|--0-0-0--0-0-0--0-0-0--0-0-0--0--|
   . . .  . . .  . . .  . . .  .

Riff 6-A
|-----------------------------------|-----------------------------------|
|-----------------------------------|-----------------------------------|
|-----------------------------------|-----------------------------------|
|--2--------------------------------|--7--------------------------------|
|--2--------------------------------|--5--------------------------------|
|--0--------------------------------|-----------------------------------|
|                                   |                                   |
|                                   |                                   |
|-----------------------------------|-----------------------------------|
|-----------------------------------|-----------------------------------|
|-----------------------------------|-----------------------------------|
|--5--------------------------------|--0-0-5-0-4-5-0-0-9-0-0-7-0-0-5-4--|
|--3--------------------------------|-----------------------------------|
|-----------------------------------|-----------------------------------|


Riff 6-B
|-----------------------------------|-----------------------------------|
|-----------------------------------|-----------------------------------|
|-----------------------------------|-----------------------------------|
|--2--------------------------------|--7--------------------------------|
|--2--------------------------------|--5--------------------------------|
|--0--------------------------------|-----------------------------------|
|                                   |                                   |
|                                   |                                   |
|-----------------------------------|-----------------------------------|
|-----------------------------------|-----------------------------------|
|-----------------------------------|-----------------------------------|
|--5--------------------------------|--0-0-5-0-4-5-0-0-9-0-0-7-0-0-5-4--|
|--3--------------------------------|-----------------------------------|
|-----------------------------------|-----------------------------------|
|                                   |  . .   .     . .   . .   . .      |
|                                   |                                   |
|-----------------------------------|-----------------------------------|
|-----------------------------------|-----------------------------------|
|-----------------------------------|-----------------------------------|
|-0-0-5-0-4-5-0-0-10-0-0-9-0-0-7-5--|--0-0-5-0-4-5-0-0-7-0-0-9-0-0-5-4--|
|-----------------------------------|-----------------------------------|
|-----------------------------------|-----------------------------------|
| . .   .     . .   . .   . .       |  . .   .     . .   . .   . .      |
|                                   |                                   |
|-----------------------------------|-----------------------------------|
|-----------------------------------|-----------------------------------|
|------------------5-4---4----------|-----------------------------------|
|--0-0-5-0-4-5-0-0-----7---7-5-7-5--|-----------------------------------|
|-----------------------------------|--3-2---3--------------------------|
|-----------------------------------|------5---5-3-5-3------------------|
   . .   .     . .

Riff 7                                                      Gtr I
|----------------------------------------------------------------|
|----------------------------------------------------------------|
|-----------------------4--5--4-----------------------7---5---4--|
|--------5--7--5-----------------------5--7--5-------------------|
|----------------------------------------------------------------|
|--0-0-0----------0-0-0----------0-0-0----------0-0-0------------|
   . . .          . . .          . . .          . . .
                                                           Gtr II
|----------------------------------------------------------------|
|----------------------------------------------------------------|
|-----------------------------------------------------7---5---4--|
|----------------------------------------------------------------|
|--2-2-2----------2-2-2----------2-2-2----------2-2-2------------|
|--0-0-0----------0-0-0----------0-0-0----------0-0-0------------|
   . . .          . . .          . . .          . . .

Riff 8
|---------------------------------------------------|
|---------------------------------------------------|
|--------------------ph-------------------------ph--|
|--9-0-0-10-7-9-0-0-10~--9-10-9-0-0-10-7-9-0-0-10~--|
|---------------------------------------------------|
|---------------------------------------------------|
     . .        . .             . .        . .

Solo 1
|--15-14-14----14-----------------------------------------------------
|-----------17----17-17-15-17-15----15-----------------------15-------
|--------------------------------17----17~----14-16-17-16-17----17-16-
|---------------------------------------------------------------------
|---------------------------------------------------------------------
|---------------------------------------------------------------------


--------------t17p15p14p12-t\17--t17p15p14p12-t\17--t17p15p14p12-t\17-
-14-16-17-16~---------------------------------------------------------


-t17p15p14p12-t\17--t12p10p8p7-t\17--t12p10p8p7-t\17--t12p10p8p7------|


Riff 9 (Solo riff.)
|---------------------------------------------------------------------|
|---------------------------------------------------------------------|
|---------------------------------------------------------------------|
|--5-------------------------------------5/4-----------------7--------|
|--3-------------------------------------3/2--2--2--2--2--2--5--------|
|---------------------------------------------------------------------|
                                              .  .  .  .  .

Riff 10                                               Gtr I
|----------------------------------------------------------|
|----------------------------------------------------------|
|--0-4-5-0-0-9-0-7-0-5-0-0-9-0-7-0-5-7-5-0-0-9-0-7-9-7~----|
|----------------------------------------------------------|
|----------------------------------------------------------|
|----------------------------------------------------------|
   .     . .   .   .   . .   .   .       . .   .
                                                     Gtr II
|----------------------------------------------------------|
|----------------------------------------------------------|
|----------------------------------------------------------|
|--5-------------------------------5-7-5x--------7-9-7-----|
|--3-------------------------------3-5-3x--------5-7-5-----|
|----------------------------------------------------------|


Riff 8
|---------------------------------------------------|
|---------------------------------------------------|
|--------------------ph-------------------------ph--|
|--9-0-0-10-7-9-0-0-10~--9-10-9-0-0-10-7-9-0-0-10~--|
|---------------------------------------------------|
|---------------------------------------------------|
     . .        . .             . .        . .

Solo 2
|--15-14-14----14-----------------------------------------------------------|
|-----------17----17-17-15-17-15----15-----------------------15-------t\15--|
|--------------------------------17----17~----14"16"17"16"17"---17~---------|
|---------------------------------------------------------------------------|
|---------------------------------------------------------------------------|
|---------------------------------------------------------------------------|


Riff 6-C (End Riff.)
|-----------------------------------|-----------------------------------|
|-----------------------------------|-----------------------------------|
|-----------------------------------|-----------------------------------|
|--2--------------------------------|--7--------------------------------|
|--2--------------------------------|--5--------------------------------|
|--0--------------------------------|-----------------------------------|
|                                   |                                   |
|                                   |                                   |
|-----------------------------------|-----------------------------------|
|-----------------------------------|-----------------------------------|
|-----------------------------------|-----------------------------------|
|--5--------------------------------|-------------------9----(9)///-----|
|--3--------------------------------|--7-7---7-7-7------7----(7)///-----|
|-----------------------------------|--0-0---0-0-0-0000-----------------|
                                       . .   . . . ....





Comments


Popular Dark Tranquillity tabs & chords
Edenspring Bass Tabs
Lady In Black Bass Tabs
There In Bass Tabs
Zodijackyl Light Bass Tabs
Damage Done Tabs
Freecard Tabs
Lost To Apathy Tabs
The Sun Fired Blanks 1 Tabs
The Treason Wall Intro Tabs
Undo Control Tabs


Song lyrics



↑ Back to top | Tablatures and chords are parodies/interpretations of the original songs. You may use it for private study, scholarship, research or language learning purposes only
© 2014 AZChords.com Contact us | Privacy policy | DMCA | Add/correct tabs | Request tabs | Top 50 tabs