>
 >
Lady In Black

Lady In Black Bass Tabs

Dark Tranquillity - Lady In Black chords, tabs, tablatures, lyrics

Guitar lessons | Add/correct | Request | Top 50 tabs Artists:  A B C D E F G H I J K L M N O P Q R S T U V W X Y Z 0-9

Lady In Black Bass Tabs – Dark Tranquillity

CD, Sheet music, Poster

Do you like Lady In Black? Share with your friends now
Bass Tabs
standard tuning

G||-----------------------|----------------------|-------------------------|
D||*--0-0--0-0------------|--0-0--0-0------------|------------5----3----2--|
A||*----------------------|----------------------|--3--3-3-3---------------|
E||-----------------------|----------------------|-------------------------|


                                                                           
--------------------------||-----------------------|----------------------|
------------5----3----2--*||*--0-0--0-0------------|--0-0--0-0------------|
--3--3-3-3---------------*||*----------------------|----------------------|
--------------------------||-----------------------|----------------------|


                                                      
-------------------------|--------------------------||
------------5----3----2--|------------5----3----2--*||
--3--3-3-3---------------|--3--3-3-3---------------*||
-------------------------|--------------------------||


                                                      
---------------------------|-------------------------|
*--------------------------|-------------------------|
*--------------------------|-------------------------|
---x--x--0--0--x--x--0--0--|--x--x--0h-2----3--2--0--|


                                                                               
--------------------------|--------------------------||-----------------------|
--------------------------|----------------2--0-----*||*--0-0--0-0------------|
--x--x--3--3--x--x--3--3--|--x--x--3h-5----------3--*||*----------------------|
--------------------------|--------------------------||-----------------------|


                                                                             
----------------------|-------------------------|--------------------------||
--0-0--0-0------------|------------5----3----2--|------------5----3----2--*||
----------------------|--3--3-3-3---------------|--3--3-3-3---------------*||
----------------------|-------------------------|--------------------------||


                                                                         
-----------------------|----------------------|-------------------------|
*--0-0--0-0------------|--0-0--0-0------------|------------5----3----2--|
*----------------------|----------------------|--3--3-3-3---------------|
-----------------------|----------------------|-------------------------|


                                                        
--------------------------||---------------------------|
------------5----3----2--*||*--------------------------|
--3--3-3-3---------------*||*--------------------------|
--------------------------||---x--x--0--0--x--x--0--0--|


                                                     
-------------------------|--------------------------|
-------------------------|--------------------------|
-------------------------|--x--x--3--3--x--x--3--3--|
--x--x--0h-2----3--2--0--|--------------------------|


                                                        
--------------------------||---------------------------|
----------------2--0-----*||*--0--0--0--0--0--0--0--0--|
--x--x--3h-5----------3--*||*--------------------------|
--------------------------||---------------------------|


                                                                               
--------------------------|--------------------------|-----------------------||
--------------------------|--------------------------|----------------------*||
--3--3--3--3--3--3--3--3--|--1--1--1--1--1--1--1--1--|--0--0------1--1------*||
--------------------------|--------------------------|-----------------------||


                                                             
--------------------|------------------|--------------------|
*--0----------------|------------------|--------------------|
*-------------------|------------------|--3--3--------------|
--------------------|------------------|--------------------|


                   2x                                                         
-------------------||------------------|------------------|------------------|
------------------*||------------------|------------------|------------------|
------------------*||------------------|------------------|------------------|
-------------------||------------------|------------------|------------------|


                                                                    
------------------|------------------|-----------------------------|
------------------|------------------|-----------------------------|
------------------|------------------|--8--8------------------8----|
------------------|------------------|--------0-0-0-0-0-0-0-0------|


                                                            
-----------------------------|-----------------------------|
-----------------------------|-----------------------------|
--8--8------------------8----|--8--8------------------8----|
--------0-0-0-0-0-0-0-0------|--------0-0-0-0-0-0-0-0------|


                                                                               
-----------------------------|------------------------|-----------------------|
-----------------------------|------------------------|-----------------------|
--8--8------------------8----|--5---5-5--5----5----5--|--5---5-5--5------5----|
--------0-0-0-0-0-0-0-0------|------------------------|-----------------------|


                                                                
-------------------------------|-------------------------------|
-------------------------------|-------------------------------|
-------------------------------|-------------------------------|
--3-3-3-3-3-3-3-3-3-3-3-3-3----|--3-3-3-3-3-3-3-3-3-3-3-3-3----|


                                                 
------------------------|-----------------------|
------------------------|-----------------------|
--5---5-5--5----5----5--|--5---5-5--5------5----|
------------------------|-----------------------|


                                                                
-------------------------------|-------------------------------|
-------------------------------|-------------------------------|
-------------------------------|-------------------------------|
--3-3-3-3-3-3-3-3-3-3-3-3-3----|--3-3-3-3-3-3-3-3-3-3-3-3-3----|


                                                      
--------------------------|--------------------------|
--0--0--0--0--0--0--0--0--|--------------------------|
--------------------------|--3--3--3--3--3--3--3--3--|
--------------------------|--------------------------|


                                                                             
--------------------------|----------------------|--------------------------|
--------------------------|----------------------|--0--0--0--0--0--0--0--0--|
--1--1--1--1--1--1--1--1--|--0--0------1--1------|--------------------------|
--------------------------|----------------------|--------------------------|


                                                                             
--------------------------|--------------------------|----------------------|
--------------------------|--------------------------|----------------------|
--3--3--3--3--3--3--3--3--|--1--1--1--1--1--1--1--1--|--0--0------1--1------|
--------------------------|--------------------------|----------------------|


                      
------|------|------||
------|------|------||
------|------|------||
------|------|------||





Comments


Popular Dark Tranquillity tabs & chords
Auctioned Bass Tabs
Fabric Bass Tabs
Lethe Bass Tabs
Punish My Heaven Bass Tabs
Lethe 1 Tabs
One Brooding Warning Tabs
Silence, And The Firmament Withdrew Tabs
Tidal Tantrum Tabs
Tongues Tabs
Winter Triangle Intro Tabs


Song lyrics



↑ Back to top | Tablatures and chords are parodies/interpretations of the original songs. You may use it for private study, scholarship, research or language learning purposes only
© 2014 AZChords.com Contact us | Privacy policy | DMCA | Add/correct tabs | Request tabs | Top 50 tabs