» » »

Dark Tranquillity, Insanity's Crescendo Bass tabs (ver.1)

Artists:  A B C D E F G H I J K L M N O P Q R S T U V W X Y Z # 

Insanity's Crescendo Bass tabs (ver.1)

Dark Tranquillity Tabs
 Rating:
4/5 (4 votes)
Insanity's Crescendo lessons Tabs too difficult? Try these video lessons and learn fast
1
                Tune Down

                                                         
E ||----------------------------------------------------|
B ||----------------------------------------------------|
F#||--0----------------------------------------------5--|
C#||----------------------------------------------------|


                                                              
-------------------------------------------------------------|
-------------------------------------------------------------|
--7----------------------------------------------------------|
-------------------------------0--0--0--0--0--0--0--0--0--0--|


                                                           
----------------------------------------------------------|
----------------------------------------------------------|
--0--0--0--0------------------0--0--0--0------------------|
----------------------------------------------------------|


                                                                     
--0--0--0--0------------------0--0--0--0------5--5-5-5-5-7--7-7-7-7-|


                                                                           
--0--0--0--0--0--0--0--0--0--0--5--7--8--8--8--8--8--8--7--7--7--7--3--3--|


                                                                              
--0--0--0--0--0--0--0--0--0--0--5--7--8--8--8--8--8--8--7--7--7--------------|


                                                                           
--0--0--0--0--7--8--7--7--7--7--7--7--5--5--5--5--7--5--8--8--8--8--7--8--|


                                                                           
--0--0--0--0--7--8--7--7--7--7--7--7--5--5--5--5--7--5--8--8--8--8--7--8--|


                                                                                
--0--0--0--0--0--0--0--0--0--0--0--0--3--3--3--5--3--5--7--7--7--7--7--7--0--0--


                                                                                
--7--7--7--7--5--5--5--5--5--5--8--8--8--8--7--8--3--3--3--3--3--3--2--2--2--2--


                                                                                
||----------------------------------------------------------------------------||
||*--------------------------------------------------------------------------*||
||*--0--0--0--0--0--0--0--0--0--0--5--7--8--8--8--8--8--8--7--7--7--7--3--3--*||
||----------------------------------------------------------------------------||


                                                                           
--0--0--0--0--7--8--7--7--7--7--7--7--5--5--5--5--7--5--8--8--8--8--7--8--|


                                                                           
--0--0--0--0--7--8--7--7--7--7--7--7--5--5--5--5--7--5--8--8--8--8--7--8--|


                                                                                
--0--------------------------------5--------------------------------7-----------


                                                                                
||-------------------------------7r-----------------------9----10----9----------
||*--7----------------7----10---------------------------------------------------
||*-----------------------------------------------------------------------------
||------------------------------------------------------------------------------


                                                                               
--0------------3----5------------7--8--7----------8--7--5--3--------2---------|


                                                                                
--0------------3----5------------7--8--7----------8--7--5--3--------3-2-0-2-2--3


                                                                                
||------------------------------------------------------------------------------
||*-----------------------------------------------------------------------------
||*-----------------------------------------------------------------------------
||---5----------------5------------------5--7--8--10------------8------8--10--8-


                                                                                
--5------------5------------5------------5------5--7--8--3--3--3--3--3--3--1--1-


                                                                                
--0--0--0--0----------------------------------------5--7------------------------


                                                                 
||-------------------------------------------------------------||
||*-----------------------------------------------------------*||
||*--0----------0--8------10------7----------7--5------7------*||
||-------------------------------------------------------------||


                                                                                
--5------------------5--5--5--1----------1--0----------0--5----------5--5-------


                                                                                
--5----------5--0----------0--3----------3--1------1--0--1--5----------5--0-----


                                                                                
--0--0--0--0--0--0--0--0--0--0--0--0--3--3--3--5--3--5--7--7--7--7--7--7--0--0--
            
Submit corrections

comments powered by Disqus
↑ Back to top | Dark Tranquillity Bass for Insanity's Crescendo. Lyrics for acoustic guitar and electric guitar. 1 Tablatures and chords are parodies/interpretations of the original songs. You may use it for private study, scholarship, research or language learning purposes only