» » »

Dark Tranquillity, Haven Bass tabs (ver.1)

Artists:  A B C D E F G H I J K L M N O P Q R S T U V W X Y Z # 

Haven Bass tabs (ver.1)

Dark Tranquillity Tabs
 Rating:
4/5 (4 votes)
Haven lessons Tabs too difficult? Try these video lessons and learn fast
                /---------------------------------------------------------------------------/
/    The following is the author's own interpretation of the song, to be    /
/                     used for private use and studying                     /
/---------------------------------------------------------------------------/
		   DARK TRANQUILLITY - HAVEN (BASS)
                         From the Album HAVEN
		     Copyright 2000 CENTURY MEDIA
                       Version 1.0 - MARCH 2001


For Questions, Comments, Newest Version, or Corrections contact

Check Out Death Warp, With More Transcriptions On It:

 .  - palm mute          /  - slide up to
 \  - slide down to      ~  - vibrato
 h  - hammer on          b  - bend
 p  - pull off            Suffixes for bend
                          ph - pinch harmonic
                           f - full bend    h - half bend
*  - see comment           r - release      t - tap bend
X  - percussion mute       ~ - vibrato bend
@  - slight palm mute     () - ghost note, sustained note

Tune Bass to Eb (Eb, Ab, Db, Gb)

Intro (0:00)
|-------------|
|-------------|
|-------------|
|-0-0-00-0-0~-|

Chorus (0:05)
|----------------------------------------|
|----------------------------------------|
|----------------------------------------|
|-00000000000022333333333377777710101010-|

|------------------------------------|----|
|------------------------------------|----|
|------------------------------------|----|
|-0000000000002233333333337777775555-|-0~-|

(0:22)		   (0:32)
|-----------------|--------|
|-Some-Special-FX-|--------|
|------(REST)-----|--------|
|-----------------|-3-2-0~-|

Verse I (0:34)
|---------------------------------------|
|:-------------------------------------:|
|:--------------3~-------5~--2~--------:|
|---3-2-0~---2-3------3-2--------3~-0~--|

Verse II (0:53)
|--------------------------------------------------------|
|--------------------------------------------------------|
|-------------------------------57-----------------------|
|-0-00--0-005-7--8-3--32-0-00-0---5-7--8-3-3-3-3-2-2-2-2-|

Pre-Chorus (1:09)
|-----------------------------|
|:---------------------------:|
|:---------------------------:|
|--0-02320-3-333--5--7578757--|

Chorus (1:28)
Verse I (1:44)
Verse II (2:05)
Pre-Chorus (2:21)
Chorus (2:38)

Together with drums (2:54)
|---------|
|---------|
|---------|
|-00-0-00-|

Solo* (2:56)
*Same as chorus but slower.

Chorus (3:11)
Together with drums (3:27)

Check Out Death Warp, With More Transcriptions On It:
            
Submit corrections

comments powered by Disqus
↑ Back to top | Dark Tranquillity Bass for Haven. Lyrics for acoustic guitar and electric guitar. Tablatures and chords are parodies/interpretations of the original songs. You may use it for private study, scholarship, research or language learning purposes only