» » »

Dark Tranquillity, Ex Nihilo Tabs (ver.1)

Artists:  A B C D E F G H I J K L M N O P Q R S T U V W X Y Z # 

Ex Nihilo Tabs (ver.1)

Dark Tranquillity Tabs
Rating:
3/5 (1 vote)
Ex Nihilo lessons Tabs too difficult? Try these video lessons and learn fast
                Band: Dark Tranquillity

C# Tuning: C#, F#, B, E, G#, C#

Intro:
Guitar 1 clean (Play it the whole song, just stop playing at the less distortion solo riff)
----------------|-----|-----------------------------|--------------|
---------8------|-----|-----11-------------11-------|--------8-----|
---4--4-5---5-4-|-4-0-|-7-8----8-7--7--7-8----8-7-7-|-4--4-5---5-4-|
----------------|-----|-----------------------------|--------------|
----!4 Times!---|-----|-----------------------------|--|!2 Times!--|
----------------|-----|-----------------------------|--------------|

-----------------------------------------------------------------------------------

Intro Verse:
Guitar 1 - same riff, low volume

Guitar 2 heavy distortion:
----------------------------------------------------|
----------------------------------------------------|
----------------------------------------------------|
-2-2---2-2---2-2-----5-5--5-5--5-5---2-2--2-2--2-2--|
-2-2---2-2---2-2-----5-5--5-5--5-5---2-2--2-2--2-2--|
-0-0---0-0---0-0-----3-3--3-3--3-3---0-0--0-0--0-0--|
 . .   . .   . .     . .  . .  . .   . .  . .  . .

Guitar 3 heavy distortion:
----------------------------------------------------|
----------------------11----------------------------|
-----------12~~~~~~~~-----8--7--------5/9~~~~~~~~~~-|
-9--9--10-----------------------5~------------------|
----------------------------------------------------|
----------------------------------------------------|

2 Times!


----------------------------------------------------------------------------------


Verse:

Guitar 1 - same riff, low volume

Guitar 2 heavy distortion:
-------------------------------------------------------|
-------------------------------------------------------|
-------------------------------------------------------|
-2--2-2-2-2--2-2------5--5-5-5-5--5-5~~2--2-2-2-2--2-2~|
-2--2-2-2-2--2-2------5--5-5-5-5--5-5~~2--2-2-2-2--2-2~|
-0--0-0-0-0--0-0------3--3-3-3-3--3-3~~0--0-0-0-0--0-0~|
    . .      .           . .      . .     . .      .

Guitar 3 heavy distortion:
-------------------------------------------------------|
----------------------11-------------------------------|
-------------------------8--7-----------5/9~~~~~~~~~~~~|
-9--9--10--5~~~~~~~~~------------5~--------------------|
-------------------------------------------------------|
-------------------------------------------------------|

2 Times


----------------------------------------------------------------------------------


Chorus:

Guitar 1 - Nothing!

Guitar 2 - Nothing!

Guitar 3 - Less Distortion

------------------------------------------------------------------|
----------------------------------------------------12---------12-|
----12-------11-12-9--14-12-----11-11-11h12p11--------------------|
-9------9-9------------------9------------------12------12-12-----|
------------------------------------------------------------------|
------------------------------------------------------------------|

------------------------------------|
-12-12h13p12--10--8--7--5--7--7h8p7-|
------------------------------------|
------------------------------------|
------------------------------------|
------------------------------------|

2 Times!


-----------------------------------------------------------------------------------

Verse:

Now 4 times (instead of the intro verse the right verse)

-----------------------------------------------------------------------------------

Chorus (2 Times, too)


-----------------------------------------------------------------------------------

Verse (2 times)


-----------------------------------------------------------------------------------

Outro:

Just guitar 1 with the piano (Not tabbed, it's a guitar tab...)

That's it, have fun with this great song!

If you have got corrections etc. - Mail me!
            

comments powered by Disqus
↑ Back to top | Dark Tranquillity Tabs for Ex Nihilo. Lyrics for acoustic guitar and electric guitar. Tablatures and chords are parodies/interpretations of the original songs. You may use it for private study, scholarship, research or language learning purposes only