>
 >
Away, Delight, Away

Away, Delight, Away Bass Tabs

Dark Tranquillity - Away, Delight, Away chords, tabs, tablatures, lyrics

Guitar lessons | Add/correct | Request | Top 50 tabs Artists:  A B C D E F G H I J K L M N O P Q R S T U V W X Y Z 0-9

Away, Delight, Away Bass Tabs – Dark Tranquillity

CD, Sheet music, Poster

Do you like Away, Delight, Away? Share with your friends now
Bass TabsTabs
5 string

G||---------------|--------------|---------------|---------------|
D||---------------|--------------|---------------|---------------|
A||--0------------|--------------|--2------------|--2/-----------|
E||---------------|--------------|---------------|---------------|
B||---------------|--------------|---------------|---------------|


                                                  
----------------|----------------|---------------|
----------------|----------------|---------------|
--15------------|--15/-----------|--7------------|
----------------|----------------|---------------|
----------------|----------------|---------------|


                                                                                
-------------------------------|----------------------|------------------------|
---------7---------------------|----------------------|------------------------|
--7-9-10---10-9-10-9-10-7-9-10-|--0---0-0-0-0---0-0-0-|--0---0-0-0-0-0-0-0-0-0-|
-------------------------------|----------------------|------------------------|
-------------------------------|----------------------|------------------------|


                                                                       
----------------------|------------------------|----------------------|
----------------------|------------------------|----------------------|
--2---2-2-2-2---2-2-2-|--2---2-2-2-2-2-2-2-2-2-|--3---3-3-3-3---3-3-3-|
----------------------|------------------------|----------------------|
----------------------|------------------------|----------------------|


                                                                                
------------------------|----------------------|-------------------------------|
------------------------|----------------------|---------7---------------------|
--3---3-3-3-3-3-3-3-3-3-|--7---7-7-7-7---7-7-7-|--7-9-10---10-9-10-9-10-7-9-10-|
------------------------|----------------------|-------------------------------|
------------------------|----------------------|-------------------------------|


                                                        
|---------------------------|--------------------------|
|*--------------------------|--------------------------|
|---------------------------|--------------------------|
|*--5-5-5-7-7-7-8-8-8-7-7-7-|--5-5-5-7-7-7-8-8-8-7-7-7-|
|---------------------------|--------------------------|


                                                        
--------------------------|---------------------------||
--------------------------|--------------------------*||
--------------------------|---------------------------||
--------------------------|--------------------------*||
--5-5-5-7-7-7-8-8-8-7-7-7-|--5-5-5-7-7-7-8-8-8-7-7-7--||


                                                                            
-----------------------------|-----------------------------|---------------|
-----------------------------|-----------------------------|---------------|
--7-7-7-9-9-9-10-10-10-9-9-9-|--7-7-7-9-9-9-10-10-10-9-9-9-|--3------------|
-----------------------------|-----------------------------|---------------|
-----------------------------|-----------------------------|---------------|


                                                                      
---------------|--------------------------|--------------------------|
---------------|--------------------------|--2-0---3-2-0-2-0---3-2-0-|
--2------------|--0-0-0-0-0-0-0-0-0-0-0-0-|------3-----------3-------|
---------------|--------------------------|--------------------------|
---------------|--------------------------|--------------------------|


                                                      
--------------------------|--------------------------|
--------------------------|--------------------3-3-3-|
--3-3-3-3-3-3-3-3-3-3-3-3-|--2-2-2-2-2-2-2-2-2-------|
--------------------------|--------------------------|
--------------------------|--------------------------|


                                                      
--------------------------|--------------------------|
--2-2-2-2-2-2-2-2-2-2-2-2-|--2-0---3-2-0-2-0---3-2-0-|
--------------------------|------3-----------3-------|
--------------------------|--------------------------|
--------------------------|--------------------------|


                                                      
--------------------------|--------------------------|
--------------------------|--------------------------|
--3-3-3-3-3-3-3-3-3-3-3-3-|--2-2-2-2-2-2-2-2-2-2-2-2-|
--------------------------|--------------------------|
--------------------------|--------------------------|


                                                      
--------------------------|--------------------------|
--------------------------|--2-0---3-2-0-2-0---3-2-0-|
--0-0-0-0-0-0-0-0-0-0-0-0-|------3-----------3-------|
--------------------------|--------------------------|
--------------------------|--------------------------|


                                                      
--------------------------|--------------------------|
--------------------------|--------------------3-3-3-|
--3-3-3-3-3-3-3-3-3-3-3-3-|--2-2-2-2-2-2-2-2-2-------|
--------------------------|--------------------------|
--------------------------|--------------------------|


                                                                             
--------------------------|--------------------------|----------------------|
--------------------------|--------------------------|----------------------|
--2-2-2-2-2-2-2-2-2-2-2-2-|--5-5-5-7-7-7-8-8-8-7-7-7-|--0---0-0-0-0---0-0-0-|
--------------------------|--------------------------|----------------------|
--------------------------|--------------------------|----------------------|


                                                                         
------------------------|----------------------|------------------------|
------------------------|----------------------|------------------------|
--0---0-0-0-0-0-0-0-0-0-|--2---2-2-2-2---2-2-2-|--2---2-2-2-2-2-2-2-2-2-|
------------------------|----------------------|------------------------|
------------------------|----------------------|------------------------|


                                                                       
----------------------|------------------------|----------------------|
----------------------|------------------------|----------------------|
--3---3-3-3-3---3-3-3-|--3---3-3-3-3-3-3-3-3-3-|--7---7-7-7-7---7-7-7-|
----------------------|------------------------|----------------------|
----------------------|------------------------|----------------------|


                                                               
-------------------------------|---|--------------------------|
---------7---------------------|---|--------------------------|
--7-9-10---10-9-10-9-10-7-9-10-|---|--3-3-3-3-3-3-3-3-3-3-3-3-|
-------------------------------|---|--------------------------|
-------------------------------|---|--------------------------|


                                                      
--------------------------|--------------------------|
--------------------------|--------------------------|
--2-2-2-2-2-2-2-2-2-2-2-2-|--0-0-0-0-0-0-0-0-0-0-0-0-|
--------------------------|--------------------------|
--------------------------|--------------------------|


                                                                        
--------------------------|--------------------------|-----------------|
--------------------------|--------------------------|--2---0----------|
--0-0-0-0-0-0-0-0-0-0-0-0-|--3-3-3-3-3-3-3-3-3-3-3-3-|----------3------|
--------------------------|--------------------------|-----------------|
--------------------------|--------------------------|-----------------|


                                                                       
--------------------------|--------------------------|----------------|
--------------------------|--------------------------|----------------|
--3-3-3-3-3-3-3-3-3-3-3-3-|--7-7-7-7-7-7-7-7-7-7-7-7-|--2---------3-2-|
--------------------------|--------------------------|----------------|
--------------------------|--------------------------|----------------|


                                                                      
---------------|--------------------------|--------------------------|
---------------|--------------------------|--------------------------|
--0------------|--3-3-3-3-3-3-3-3-3-3-3-3-|--------------------------|
---------------|--------------------------|--3-3-3-3-3-3-3-3-3-3-3-3-|
---------------|--------------------------|--------------------------|


                                                                       
---------------|---------------|------------------|-------------------|
---------------|---------------|------2-----------|-------------------|
--2------------|---------------|--0-------3---0---|-----2-2-2-3---0---|
---------------|--0------------|------------------|-------------------|
---------------|---------------|------------------|-------------------|


                                                                             
-----------------|-------------------|------------------|-------------------|
-----------------|-------------------|------2-----------|-------------------|
-----------------|-----2-2-2-3---2---|--0-------3---0---|-----2-2-2-3---0---|
--0---3---0------|-------------------|------------------|-------------------|
-----------------|-------------------|------------------|-------------------|


                                                             
-----------------|-------------------|----------------------|
-----------------|-------------------|----------------------|
-----------------|-----2-2-2-3---2---|--0---0-0-0-0---0-0-0-|
--0---3---0------|-------------------|----------------------|
-----------------|-------------------|----------------------|


                                                                         
------------------------|----------------------|------------------------|
------------------------|----------------------|------------------------|
--0---0-0-0-0-0-0-0-0-0-|--2---2-2-2-2---2-2-2-|--2---2-2-2-2-2-2-2-2-2-|
------------------------|----------------------|------------------------|
------------------------|----------------------|------------------------|


                                                                       
----------------------|------------------------|----------------------|
----------------------|------------------------|----------------------|
--3---3-3-3-3---3-3-3-|--3---3-3-3-3-3-3-3-3-3-|--7---7-7-7-7---7-7-7-|
----------------------|------------------------|----------------------|
----------------------|------------------------|----------------------|


                                                             
-------------------------------||---------------------------|
---------7---------------------||*--------------------------|
--7-9-10---10-9-10-9-10-7-9-10-||---------------------------|
-------------------------------||*--5-5-5-7-7-7-8-8-8-7-7-7-|
-------------------------------||---------------------------|


                                                      
--------------------------|--------------------------|
--------------------------|--------------------------|
--------------------------|--------------------------|
--5-5-5-7-7-7-8-8-8-7-7-7-|--------------------------|
--------------------------|--5-5-5-7-7-7-8-8-8-7-7-7-|


                                                           
---------------------------||-----------------------------|
--------------------------*||-----------------------------|
---------------------------||--7-7-7-9-9-9-10-10-10-9-9-9-|
--------------------------*||-----------------------------|
--5-5-5-7-7-7-8-8-8-7-7-7--||-----------------------------|


                                                                
-----------------------------|----------------|----------------|
-----------------------------|----------------|----------------|
--7-7-7-9-9-9-10-10-10-9-9-9-|--15------------|--14------------|
-----------------------------|----------------|----------------|
-----------------------------|----------------|----------------|


                                                                          
------------------------|----------------|---------------|---------------|
------------------------|----------------|---------------|---------------|
--19------19---20-19-17-|--19------------|--3------------|--2------------|
------------------------|----------------|---------------|---------------|
------------------------|----------------|---------------|---------------|


                                                                      
---------------|--------------------------|--------------------------|
---------------|--2-0---3-2-0-2-0---3-2-0-|--------------------------|
--0------------|------3-----------3-------|--3-3-3-3-3-3-3-3-3-3-3-3-|
---------------|--------------------------|--------------------------|
---------------|--------------------------|--------------------------|


                                                      
--------------------------|--------------------------|
--------------------------|--------------------------|
--2-2-2-2-2-2-2-2-2-2-2-2-|--0-0-0-0-0-0-0-0-0-0-0-0-|
--------------------------|--------------------------|
--------------------------|--------------------------|


                                                                         
--------------------------|--------------------------|------------------|
--------------------------|--------------------------|------------------|
--0-0-0-0-0-0-0-0-0-0-0-0-|--3-3-3-3-3-3-3-3-3-3-3-3-|--7---5---3---2---|
--------------------------|--------------------------|------------------|
--------------------------|--------------------------|------------------|


                                                        
---------------------------|---------------------------|
--0-0-0-0-0-0-0-0-3-2-3----|--0-0-0-0-0-0-0-0-3-2-7----|
---------------------------|---------------------------|
---------------------------|---------------------------|
---------------------------|---------------------------|


                                                        
---------------------------|---------------------------|
--3-3-3-3-3-3-3-3-7-5-7----|--3-3-3-3-3-3-3-3-7-5-7----|
---------------------------|---------------------------|
---------------------------|---------------------------|
---------------------------|---------------------------|


                                                                               
---------------------------|---------------------------|----------------------|
--0-0-0-0-0-0-0-0-3-2-3----|--0-0-0-0-0-0-0-0-3-2-7----|--7--7-7-7-7-8--7-8---|
---------------------------|---------------------------|----------------------|
---------------------------|---------------------------|----------------------|
---------------------------|---------------------------|----------------------|


                                                      
----------------------|------------------------------|
--7--7-7-7-7-8--7-8---|--10--10-10-10-10-12--10-12---|
----------------------|------------------------------|
----------------------|------------------------------|
----------------------|------------------------------|


                                                                             
------------------------------|----------------------|----------------------|
--10--10-10-10-10-12--10-12---|--7--7-7-7-7-8--7-8---|--7--7-7-7-7-8--7-8---|
------------------------------|----------------------|----------------------|
------------------------------|----------------------|----------------------|
------------------------------|----------------------|----------------------|


                                                                               
--9--9-9-9-9-10--10-10-10-10-|--9-----------7---|-----|-----|-----|-----|-----|
-----------------------------|---------10-------|-----|-----|-----|-----|-----|
-----------------------------|------------------|-----|-----|-----|-----|-----|
-----------------------------|------------------|-----|-----|-----|-----|-----|
-----------------------------|------------------|-----|-----|-----|-----|-----|


                      
-----|--------------||
-----|--------------||
-----|--------------||
-----|--------------||
-----|--------------||





Comments


Popular Dark Tranquillity tabs & chords
Edenspring Bass Tabs
Edenspring 1 Bass Tabs
Lady In Black Bass Tabs
There In Bass Tabs
Feast Of Burden Tabs
Lethe 1 Tabs
Silence, And The Firmament Withdrew Tabs
The Dividing Line Tabs
Undo Control Tabs
With The Flaming Shades Of Fall Tabs


Song lyrics



↑ Back to top | Tablatures and chords are parodies/interpretations of the original songs. You may use it for private study, scholarship, research or language learning purposes only
© 2014 AZChords.com Contact us | Privacy policy | DMCA | Add/correct tabs | Request tabs | Top 50 tabs