>
 >
Auctioned

Auctioned Bass Tabs

Dark Tranquillity - Auctioned chords, tabs, tablatures, lyrics

Guitar lessons | Add/correct | Request | Top 50 tabs Artists:  A B C D E F G H I J K L M N O P Q R S T U V W X Y Z 0-9

Auctioned Bass Tabs – Dark Tranquillity

CD, Sheet music, Poster

Do you like Auctioned? Share with your friends now
Bass Tabs
Tune Down

E ||--------------------|--------------------|--------------------|
B ||--------------------|--------------------|--------------------|
F#||--------------------|--------------------|--------------------|
C#||--5--------------5--|--0--------------0--|--1--------------1--|


                                                                 
--------------------|--------------------|----------------------|
--------------------|--------------------|----------------------|
--------------------|--------------------|----------------------|
--0--------------0--|--1--------------1--|--0------0--0------0--|


                                                                    
---------------------|------------------------|--------------------|
---------------------|------------------------|--------------------|
-----------------10--|--12--------12----12----|--------------------|
--5------------------|------------------------|--5--------------5--|


                                                               
--------------------|--------------------|--------------------|
--------------------|--------------------|--------------------|
--------------------|--------------------|--------------------|
--0--------------0--|--1--------------1--|--0--------------0--|


                                                                  
--------------------|----------------------|---------------------|
--------------------|----------------------|---------------------|
--------------------|----------------------|-----------------10--|
--1--------------1--|--0------0--0------0--|--5------------------|


                                                               
------------------------|------------------|------------------|
------------------------|------------------|------------------|
--12--------12----12----|------------------|------------------|
------------------------|------------------|------------------|


                                                                   
|----------------------|--------------------|---------------------|
|*---------------------|--------------------|---------------------|
|*--0------------0--2--|--3------------3----|--5--------2----5----|
|----------------------|--------------------|---------------------|


                                                                
--------------------|---------------------|--------------------|
--------------------|---------------------|--------------------|
--7------------7----|--0------------0--2--|--3------------3----|
--------------------|---------------------|--------------------|


                                             3x                         
---------------------|-----------------------||------------------------|
---------------------|--------------5-------*||------------------------|
--5--------2----5----|--7--------7-----7----*||--0----0--0--0----0--2--|
---------------------|-----------------------||------------------------|


                                                                         
-----------------------|-----------------------|------------------------|
-----------------------|-----------------------|----------------5-------|
--3----3--3--3----3----|--5----5--5--2----5----|--7----7--7--7-----7----|
-----------------------|-----------------------|------------------------|


                                                                         
------------------------|-----------------------|-----------------------|
------------------------|-----------------------|-----------------------|
--0----0--0--0----0--2--|--3----3--3--3----3----|--5----5--5--2----5----|
------------------------|-----------------------|-----------------------|


                                                       
-----------------------------|------------------------|
-----------------------7--9--|------------------------|
--7--10--9------9--10--------|--2----2--2--2----5--2--|
------------10---------------|------------------------|


                                                                             
-------------------------|------------------------|-------------------------|
----------------------2--|--4----4--4--4----2--4--|----4--4--4--4--2--------|
----2--2--2--5--2--5-----|------------------------|-------------------4--5--|
-------------------------|------------------------|-------------------------|


                                                                            
------------------------|-------------------------|------------------------|
------------------------|-------------------------|------------------5-----|
--0----0--0--0----4--0--|----0--0--0--0--0--4--5--|--2----2--2--2-------7--|
------------------------|-------------------------|------------------------|


                                                                                
----------------------------|------------------------|-------------------------|
--------------9-------------|------------------------|----------------------2--|
----7--9--10-----10--9--10--|--2----2--2--2----5--2--|----2--2--2--5--2--5-----|
----------------------------|------------------------|-------------------------|


                                                                            
------------------------|-------------------------|------------------------|
--4----4--4--4----2--4--|----4--4--4--4--2--------|------------------------|
------------------------|-------------------4--5--|--0----0--0--0----4--0--|
------------------------|-------------------------|------------------------|


                                                                                
-------------------------|------------------------|----------------------------|
-------------------------|------------------5-----|--------------9-------------|
----0--0--0--0--0--4--5--|--2----2--2--2-------7--|----7--9--10-----10--9--10--|
-------------------------|------------------------|----------------------------|


                                                               
--------------------|--------------------|--------------------|
--------------------|--------------------|--------------------|
--------------------|--------------------|--------------------|
--5--------------5--|--0--------------0--|--1--------------1--|


                                                                 
--------------------|--------------------|----------------------|
--------------------|--------------------|----------------------|
--------------------|--------------------|----------------------|
--0--------------0--|--1--------------1--|--0------0--0------0--|


                                                                    
---------------------|------------------------|--------------------|
---------------------|------------------------|--------------------|
-----------------10--|--12--------12----12----|--------------------|
--5------------------|------------------------|--5--------------5--|


                                                               
--------------------|--------------------|--------------------|
--------------------|--------------------|--------------------|
--------------------|--------------------|--------------------|
--0--------------0--|--1--------------1--|--0--------------0--|


                                                                  
--------------------|----------------------|---------------------|
--------------------|----------------------|---------------------|
--------------------|----------------------|-----------------10--|
--1--------------1--|--0------0--0------0--|--5------------------|


                                                                      
------------------------||----------------------|--------------------|
------------------------||*---------------------|--------------------|
--12--------12----12----||*--0------------0--2--|--3------------3----|
------------------------||----------------------|--------------------|


                                                                 
---------------------|--------------------|---------------------|
---------------------|--------------------|---------------------|
--5--------2----5----|--7------------7----|--0------------0--2--|
---------------------|--------------------|---------------------|


                                                                    
--------------------|---------------------|-----------------------||
--------------------|---------------------|--------------5-------*||
--3------------3----|--5--------2----5----|--7--------7-----7----*||
--------------------|---------------------|-----------------------||


                                                                         
------------------------|-----------------------|-----------------------|
------------------------|-----------------------|-----------------------|
--0----0--0--0----0--2--|--3----3--3--3----3----|--5----5--5--2----5----|
------------------------|-----------------------|-----------------------|


                                                                          
------------------------|------------------------|-----------------------|
----------------5-------|------------------------|-----------------------|
--7----7--7--7-----7----|--0----0--0--0----0--2--|--3----3--3--3----3----|
------------------------|------------------------|-----------------------|


                                                                               
-----------------------|-----------------------------|------------------------|
-----------------------|-----------------------7--9--|------------------------|
--5----5--5--2----5----|--7--10--9------9--10--------|--2----2--2--2----5--2--|
-----------------------|------------10---------------|------------------------|


                                                                             
-------------------------|------------------------|-------------------------|
----------------------2--|--4----4--4--4----2--4--|----4--4--4--4--2--------|
----2--2--2--5--2--5-----|------------------------|-------------------4--5--|
-------------------------|------------------------|-------------------------|


                                                                            
------------------------|-------------------------|------------------------|
------------------------|-------------------------|------------------5-----|
--0----0--0--0----4--0--|----0--0--0--0--0--4--5--|--2----2--2--2-------7--|
------------------------|-------------------------|------------------------|


                                                                                
----------------------------|------------------------|-------------------------|
--------------9-------------|------------------------|----------------------2--|
----7--9--10-----10--9--10--|--2----2--2--2----5--2--|----2--2--2--5--2--5-----|
----------------------------|------------------------|-------------------------|


                                                                            
------------------------|-------------------------|------------------------|
--4----4--4--4----2--4--|----4--4--4--4--2--------|------------------------|
------------------------|-------------------4--5--|--0----0--0--0----4--0--|
------------------------|-------------------------|------------------------|


                                                                                
-------------------------|------------------------|----------------------------|
-------------------------|------------------5-----|--------------9-------------|
----0--0--0--0--0--4--5--|--2----2--2--2-------7--|----7--9--10-----10--9--10--|
-------------------------|------------------------|----------------------------|


                                                      
--------------------------|--------------------------|
--------------------------|--------------------------|
--------------7-----------|--------5-----------------|
--5--7--8--5-----5--7--8--|--7--5-----5--7--8--7--5--|


                                                      
--------------------------|--------------------------|
--------------------------|--------------------------|
--------------7-----------|--------5-----------5-----|
--4--7--8--4-----4--7--8--|--7--4-----4--7--8-----8--|


                                                      
--------------------------|--------------------------|
--------------------------|--------------------------|
--------------7-----------|--------5-----------------|
--5--7--8--5-----5--7--8--|--7--5-----5--7--8--7--5--|


                                                                           
--------------------------|--------------------------|--------------------|
--------------------------|--------------------------|--------------------|
--------------7-----------|--------5-----------5-----|--------------------|
--4--7--8--4-----4--7--8--|--7--4-----4--7--8-----8--|--5--------------5--|


                                                             
-------------------|--------------------|-------------------|
-------------------|--------------------|-------------------|
-------------------|--------------------|-------------------|
--5----------------|--0--------------0--|--0----------------|


                                                              
--------------------|-------------------|--------------------|
--------------------|-------------------|--------------------|
--------------------|-------------------|--------------------|
--5--------------5--|--5----------------|--0--------------0--|


                                                             
-------------------|--------------------|-------------------|
-------------------|--------------------|-------------------|
-------------------|--------------------|-------------------|
--0----------------|--5--------------5--|--5----------------|


                                                              
--------------------|-------------------|--------------------|
--------------------|-------------------|--------------------|
--------------------|-------------------|--------------------|
--0--------------0--|--0----------------|--5--------------5--|


                                                                                
-------------------|--------------------|-------------------|------------------|
-------------------|--------------------|-------------------|------------------|
-------------------|--------------------|-------------------|------------------|
--5----------------|--0--------------0--|--0----------------|------------------|


                                                                            
------------------|------------------|------------------|------------------|
------------------|------------------|------------------|------------------|
------------------|------------------|------------------|------------------|
------------------|------------------|------------------|------------------|


                                                                            
------------------|------------------|------------------|------------------|
------------------|------------------|------------------|------------------|
------------------|------------------|------------------|------------------|
------------------|------------------|------------------|------------------|


                                                                    
------------------|------------------|------------------|----------|
------------------|------------------|------------------|----------|
------------------|------------------|------------------|----------|
------------------|------------------|------------------|----------|


                                               
------------------|---------------------------|
------------------|---------------------------|
------------------|-----------------------10--|
------------------|--5--5--5--5--5--5--5------|


                                                              
----------------------------------||-------------------------|
----------------------------------||*------------------------|
--12--12--12--12--12--12--12--12--||*--2----2--2--2----5--2--|
----------------------------------||-------------------------|


                                                                             
-------------------------|------------------------|-------------------------|
----------------------2--|--4----4--4--4----2--4--|----4--4--4--4--2--------|
----2--2--2--5--2--5-----|------------------------|-------------------4--5--|
-------------------------|------------------------|-------------------------|


                                                                            
------------------------|-------------------------|------------------------|
------------------------|-------------------------|------------------5-----|
--0----0--0--0----4--0--|----0--0--0--0--0--4--5--|--2----2--2--2-------7--|
------------------------|-------------------------|------------------------|


                             2x                         
-----------------------------||------------------------|
--------------9-------------*||------------------------|
----7--9--10-----10--9--10--*||--2----2--2--2----5--2--|
-----------------------------||------------------------|


                                                                             
-------------------------|------------------------|-------------------------|
----------------------2--|--4----4--4--4----2--4--|----4--4--4--4--2--------|
----2--2--2--5--2--5-----|------------------------|-------------------4--5--|
-------------------------|------------------------|-------------------------|


                                                                       
------------------------|-------------------------|-------------------|
------------------------|-------------------------|-------------------|
--0----0--0--0----4--0--|----0--0--0--0--0--4--5--|-------------------|
------------------------|-------------------------|--0----------------|


                                                                              
-------------------|-------------------|------------------|------------------|
-------------------|-------------------|------------------|------------------|
-------------------|--2----------------|------------------|------------------|
--2----------------|-------------------|------------------|------------------|


                    
------------------||
------------------||
------------------||
------------------||





Comments


Popular Dark Tranquillity tabs & chords
The Sun Fired Blanks Bass Tabs
There In Bass Tabs
A Closer End Tabs
In Tears Bereaved Tabs
Insanity's Crescendo Tabs
Monochromatic Stains Tabs
Of Chaos And Eternal Night Tabs
The Sun Fired Blanks 1 Tabs
The Wonders At Your Feet Tabs
Zodijackyl Light Tabs


Song lyrics



↑ Back to top | Tablatures and chords are parodies/interpretations of the original songs. You may use it for private study, scholarship, research or language learning purposes only
© 2014 AZChords.com Contact us | Privacy policy | DMCA | Add/correct tabs | Request tabs | Top 50 tabs