» » »

Dark Tranquility, The Minds Eye Tabs (ver.1)

Artists:  A B C D E F G H I J K L M N O P Q R S T U V W X Y Z # 

The Minds Eye Tabs (ver.1)

Dark Tranquility Tabs
Rating:
0/5 (0 votes)
The Minds Eye lessons Tabs too difficult? Try these video lessons and learn fast
                (Guitar)
The Mind's Eye

e| --------1---1---0----1-0---------------------------------
b| 3---3--------------------3---3---3---3---5---5---3---3---
g| -2---2----2---2---2-------2---2---3---3---3---3---2---2--
d| --3---3----3---3---3-------3---3---3---3---5---5---3---3-
a| ---------------------------------------------------------
E| ---------------------------------------------------------

e| 5---5---6---8-6-5--3-5-1---1-----------------------------
b| -3---3---5----------------------3---3---5---5---3---5----
g| --3---3---5--------------2---2---3---3---3---3---2---3---
d| --------------------------3---3---3---3---5---5---3---5--
a| ---------------------------------------------------------
E| ---------------------------------------------------------
            
Submit corrections

comments powered by Disqus
↑ Back to top | Dark Tranquility Tabs for The Minds Eye. Lyrics for acoustic guitar and electric guitar. Tablatures and chords are parodies/interpretations of the original songs. You may use it for private study, scholarship, research or language learning purposes only