>
 >
A Bolt Of Blazing Gold

A Bolt Of Blazing Gold Guitar Tabs

Dark Tranquility - A Bolt Of Blazing Gold chords, tabs, tablatures, lyrics

Guitar lessons | Add/correct | Request | Top 50 tabs Artists:  A B C D E F G H I J K L M N O P Q R S T U V W X Y Z 0-9

A Bolt Of Blazing Gold Guitar Tabs – Dark Tranquility

CD, Sheet music, Poster

Do you like A Bolt Of Blazing Gold? Share with your friends now
Tabs
D tuning

|-------------|--------------|--------------|--------------|
|-------------|-3-3-3--------|--------------|-1-1-1--------|
|--3-3-5-3----|--------5-3---|--2-2-3-2-----|--------3-2---|
|-------------|--------------|--------------|--------------|
|-------------|--------------|--------------|--------------|
|-------------|--------------|--------------|--------------|

Repeat this 2 times.

|-------------|--------------|--------------|--------------|
|----3-3-1---1|----1---------|--1-----------|-------1------|
|--3-------3--|--3---5-3-2---|-----5-3-2----|-5-3-2----3---|
|-------------|--------------|--------------|--------------|
|-------------|--------------|--------------|--------------|
|-------------|--------------|--------------|--------------|

Repeat that 2 or 3 times just listen to the cd.


|-------------|--------------|
|-------------|--------------|
|--3-3-3-7----|--3-3-3-6-----|
|-------------|--------------|
|-------------|--------------|
|-------------|--------------|

repeat this 4 times. Or you can play it like this that's how
i play it the most

|-------------|--------------|
|------3------|-2------------|
|--3-3---3-2-2|----2---------|
|-------------|--------------|
|-------------|--------------|
|-------------|--------------|

Repeat this also 4 times.

Part for 3 guitars i think

1st guitar plays

|-------1----1|-------1------|
|-------------|--------------|
|--3-3----5-5-|--3-3---------|
|-------------|--------------|
|-------------|--------------|
|-------------|--------------|

2nd guitar plays the same tab half a second later,
repeat this about 20 times till cd time stands on 1:57

3rd guitar 


|--3-3-3-3----|-5-5-5-5-5-5--|-3-3-3-3---5--|
|--3-3-3-3----|-5-5-5-5-5-5--|-3-3-3-3---5--|
|--3-3-3-3----|-5-5-5-5-5-5--|-3-5-3-5---7--|
|--5-5-5-5----|-7-7-7-7-7-7--|-5-5-5-5---7--|
|--5-5-5-5----|-7-7-7-7-7-7--|-5-3-5-3---5--|
|--3-3-3-3----|-5-5-5-5-5-5--|-3-3-3-3---5--|

Repeat this about 8 times till the song stands on 1:58,
Then the last part before the solo:

|-------------|--------------|
|-3-3-3-------|--3-3-3-------|
|--------3-4--|---------3-4--|
|-------------|--------------|
|-------------|--------------|
|-------------|--------------|


Solo: 

|--12-10-9-9--|-10-12---10-9-|-7------------|
|-------------|--------------|--------------|
|-------------|--------------|--------------|
|-------------|--------------|--------------|
|-------------|--------------|--------------|
|-------------|--------------|--------------|


|--7-9-10-12--|-10---7-9-10--|12-10---5-7-9-|-10-9---------|
|-------------|--------------|--------------|--------------|
|-------------|--------------|--------------|--------------|
|-------------|--------------|--------------|--------------|
|-------------|--------------|--------------|--------------|
|-------------|--------------|--------------|--------------|


|-5-7-9-12-9--|-7-9-10-12----|-9-10-9-7-7-9-|10-12-9-12-9-15|
|-------------|--------------|--------------|---------------|
|-------------|--------------|--------------|---------------|
|-------------|--------------|--------------|---------------|
|-------------|--------------|--------------|---------------|
|-------------|--------------|--------------|---------------|

Last part twice!!


Next part:

|-------------|--------------|--------------|
|-7-5-3-2-5---|--------------|--------------|
|-----------6-|6-5-3-3-6-5-1-|-1-1-6-5-3----|
|-------------|--------------|--------------|
|-------------|--------------|--------------|
|-------------|--------------|--------------|
           [___This_part_2_times_________]



|-------------|--------------|--------------|--------------|
|-------------|--------------|--5-7-7-7-9-7-|5-------------|
|-5---5-6---5-|---5----------|-5------------|--------------|
|---7-----7---|7------6-7----|--------------|--------------|
|-------------|--------------|--------------|--------------|
|-------------|--------------|--------------|--------------|

|-------------|--------------|--------------|--------------|
|-5-7-9-9-9---|-5-7-5-7-7----|-5-9-7-5---5-7|-9-12-10-9-7--|
|-------------|--------------|--------------|--------------|
|-------------|--------------|--------------|--------------|
|-------------|--------------|--------------|--------------|
|-------------|--------------|--------------|--------------|

|-------------|--------------|--------------|--------------|
|-7-7-8-7-8-7-|-8-7-5-7-5-7--|-8-7-5---7-8-8|8/10-12-------|
|-------------|--------------|--------------|--------------|
|-------------|--------------|--------------|--------------|
|-------------|--------------|--------------|--------------|
|-------------|--------------|--------------|--------------|

|-------------|--------------|--------------|
|-5-7-5-7-8-7-|-5-7-5-3------|5-7-5-3-------|
|-------------|--------------|--------------|
|-------------|--------------|--------------|
|-------------|--------------|--------------|
|-------------|--------------|--------------|

|-------------|--------------|--------------|--------------|
|-7-9-10-12-9-|-10-9-7---5-7-|-9-10-9-10-9--|-7-7-5--------|
|-------------|--------------|--------------|--------7-----|
|-------------|--------------|--------------|--------------|
|-------------|--------------|--------------|--------------|
|-------------|--------------|--------------|--------------|


Then a quiet part:

|-------------|--------------|--------------|
|---3---3---3-|---3---2---2--|---2---2------|
|-3---3---3---|-3---2---2----|-2---2----(3)-|
|-------------|--------------|--------------|
|-------------|--------------|--------------|
|-------------|--------------|--------------|

Repeat this two times.


|-------1-----|------2-------|------1-------|---2----------|
|----2-----2--|----3---3-----|----2----2----|-3----3-2h3h2-|
|--2----------|--3-----------|--2-----------|3-------------|
|-------------|--------------|--------------|--------------|
|-------------|--------------|--------------|--------------|
|-------------|--------------|--------------|--------------|

Then finally the last part of the song :)

|-------------|--------------|--------------|--------------|
|-2-3-5-3-7-5-|-3-7-5-3------|--------------|--------------|
|-------------|--------------|-5-5-7-7-7-9--|-10-9---12----|
|-------------|--------------|--------------|--------------|
|-------------|--------------|--------------|--------------|
|-------------|--------------|--------------|--------------|


|-------------|--------------|--------------|--------------|
|-------------|--------------|--------------|--------------|
|-9-10-9-7-10-|-7-7-9---10-12|-12-10-9-9-10-|-12-12-10-9---|
|-------------|--------------|--------------|--------------|
|-------------|--------------|--------------|--------------|
|-------------|--------------|--------------|--------------|


|----------5--|
|----------5--|
|-7-5-3----5--|
|-------5--5--|
|-------------|
|-------------|





Comments


Popular Dark Tranquility tabs & chords
Damage Done Tabs
Ex Nihilo Tabs
Final Resistance Tabs
Insanity's Crescendo Tabs
Lethe Tabs
The Dividing Line Tabs
The Emptiness From Which I Fed Tabs
The Gallery Tabs
The Minds Eye Guitar Tabs
The Wonders At Your Feet Tabs


Song lyrics



↑ Back to top | Tablatures and chords are parodies/interpretations of the original songs. You may use it for private study, scholarship, research or language learning purposes only
© 2014 AZChords.com Contact us | Privacy policy | DMCA | Add/correct tabs | Request tabs | Top 50 tabs