» » »

Unholy Blackmetal Bass tabs (ver.1)

Artists:  A B C D E F G H I J K L M N O P Q R S T U V W X Y Z # 

Unholy Blackmetal Bass tabs (ver.1)

Dark Throne
Rating:
0/5 (0 votes)

Hard to play? Try these video lessons and learn fast.
                G||----------------------------------|----------------------------------|
D||----------------------------------|----------------------------------|
A||--7-7-7-7-7-7-7-7-6-6-6-6-6-6-6-6-|--7-7-7-7-7-7-7-7-6-6-6-6-6-6-6-6-|
E||----------------------------------|----------------------------------|


                                                                      
----------------------------------|----------------------------------|
----------------------------------|----------------------------------|
--7-7-7-7-7-7-7-7-6-6-6-6-6-6-6-6-|--7-7-7-7-7-7-7-7-6-6-6-6-6-6-6-6-|
----------------------------------|----------------------------------|


                                                                      
----------------------------------|----------------------------------|
----------------------------------|----------------------------------|
--7-7-7-7-7-7-7-7-6-6-6-6-6-6-6-6-|--7-7-7-7-7-7-7-7-6-6-6-6-6-6-6-6-|
----------------------------------|----------------------------------|


                                                                     
----------------------|----------------------|----------------------|
----------------------|----------------------|----------------------|
----------------------|----------------------|----------------------|
--7----7----7----7----|--7----7----7----8----|--7----7----7----7----|


                                                          
----------------------|----------------------------------|
----------------------|----------------------------------|
----------------------|--7-7-7-7-7-7-7-7-6-6-6-6-6-6-6-6-|
--7----7----7----8----|----------------------------------|


                                                                      
----------------------------------|----------------------------------|
----------------------------------|----------------------------------|
--7-7-7-7-7-7-7-7-6-6-6-6-6-6-6-6-|--7-7-7-7-7-7-7-7-6-6-6-6-6-6-6-6-|
----------------------------------|----------------------------------|


                                                                      
----------------------------------|----------------------------------|
----------------------------------|----------------------------------|
--7-7-7-7-7-7-7-7-6-6-6-6-6-6-6-6-|--7-7-7-7-7-7-7-7-6-6-6-6-6-6-6-6-|
----------------------------------|----------------------------------|


                                                          
----------------------------------|----------------------|
----------------------------------|----------------------|
--7-7-7-7-7-7-7-7-6-6-6-6-6-6-6-6-|----------------------|
----------------------------------|--7----7----7----7----|


                                                                     
----------------------|----------------------|----------------------|
----------------------|----------------------|----------------------|
----------------------|----------------------|----------------------|
--7----7----7----8----|--7----7----7----7----|--7----7----7----8----|


                                                                      
----------------------------------|----------------------------------|
----------------------------------|----------------------------------|
--7-7-7-7-7-7-7-7-6-6-6-6-6-6-6-6-|--7-7-7-7-7-7-7-7-6-6-6-6-6-6-6-6-|
----------------------------------|----------------------------------|


                                                                      
----------------------------------|----------------------------------|
----------------------------------|----------------------------------|
--7-7-7-7-7-7-7-7-6-6-6-6-6-6-6-6-|--7-7-7-7-7-7-7-7-6-6-6-6-6-6-6-6-|
----------------------------------|----------------------------------|


                                                                      
----------------------------------|----------------------------------|
----------------------------------|----------------------------------|
--7-7-7-7-7-7-7-7-6-6-6-6-6-6-6-6-|--7-7-7-7-7-7-7-7-6-6-6-6-6-6-6-6-|
----------------------------------|----------------------------------|


                                                                     
----------------------|----------------------|----------------------|
----------------------|----------------------|----------------------|
----------------------|----------------------|----------------------|
--7----7----7----7----|--7----7----7----8----|--7----7----7----7----|


                                                          
----------------------|----------------------------------|
----------------------|----------------------------------|
----------------------|--7-7-7-7-7-7-7-7-6-6-6-6-6-6-6-6-|
--7----7----7----8----|----------------------------------|


                                                                      
----------------------------------|----------------------------------|
----------------------------------|----------------------------------|
--7-7-7-7-7-7-7-7-6-6-6-6-6-6-6-6-|--7-7-7-7-7-7-7-7-6-6-6-6-6-6-6-6-|
----------------------------------|----------------------------------|


                                                                      
----------------------------------|----------------------------------|
----------------------------------|----------------------------------|
--7-7-7-7-7-7-7-7-6-6-6-6-6-6-6-6-|--7-7-7-7-7-7-7-7-6-6-6-6-6-6-6-6-|
----------------------------------|----------------------------------|


                                                          
----------------------------------|----------------------|
----------------------------------|----------------------|
--7-7-7-7-7-7-7-7-6-6-6-6-6-6-6-6-|----------------------|
----------------------------------|--7----7----7----7----|


                                                                     
----------------------|----------------------|----------------------|
----------------------|----------------------|----------------------|
----------------------|----------------------|----------------------|
--7----7----7----8----|--7----7----7----7----|--7----7----7----8----|


                                                                      
----------------------------------|----------------------------------|
----------------------------------|----------------------------------|
----------------------------------|----------------------------------|
--0-0-0-0-0-0-0-0-3-3-3-3-6-6-6-6-|--5-5-5-5-5-5-5-5-5-5-5-5-5-5-5-5-|


                                                                      
----------------------------------|----------------------------------|
----------------------------------|----------------------------------|
----------------------------------|----------------------------------|
--0-0-0-0-0-0-0-0-3-3-3-3-6-6-6-6-|--5-5-5-5-5-5-5-5-5-5-5-5-5-5-5-5-|


                                                                      
----------------------------------|----------------------------------|
----------------------------------|----------------------------------|
----------------------------------|----------------------------------|
--0-0-0-0-0-0-0-0-3-3-3-3-6-6-6-6-|--5-5-5-5-5-5-5-5-5-5-5-5-5-5-5-5-|


                                                                      
----------------------------------|----------------------------------|
----------------------------------|----------------------------------|
----------------------------------|----------------------------------|
--0-0-0-0-0-0-0-0-3-3-3-3-6-6-6-6-|--5-5-5-5-5-5-5-5-5-5-5-5-5-5-5-5-|


                                                                      
----------------------------------|----------------------------------|
----------------------------------|----------------------------------|
----------------------------------|----------------------------------|
--0-0-0-0-0-0-0-0-3-3-3-3-6-6-6-6-|--5-5-5-5-5-5-5-5-5-5-5-5-5-5-5-5-|


                                                                      
----------------------------------|----------------------------------|
----------------------------------|----------------------------------|
----------------------------------|----------------------------------|
--0-0-0-0-0-0-0-0-3-3-3-3-6-6-6-6-|--5-5-5-5-5-5-5-5-5-5-5-5-5-5-5-5-|


                                                                      
----------------------------------|----------------------------------|
----------------------------------|----------------------------------|
----------------------------------|----------------------------------|
--0-0-0-0-0-0-0-0-3-3-3-3-6-6-6-6-|--5-5-5-5-5-5-5-5-5-5-5-5-5-5-5-5-|


                                                                      
----------------------------------|----------------------------------|
----------------------------------|----------------------------------|
----------------------------------|----------------------------------|
--0-0-0-0-0-0-0-0-3-3-3-3-6-6-6-6-|--5-5-5-5-5-5-5-5-5-5-5-5-5-5-5-5-|


                                                                      
----------------------------------|----------------------------------|
----------------------------------|----------------------------------|
--7-7-7-7-7-7-7-7-6-6-6-6-6-6-6-6-|--7-7-7-7-7-7-7-7-6-6-6-6-6-6-6-6-|
----------------------------------|----------------------------------|


                                                                      
----------------------------------|----------------------------------|
----------------------------------|----------------------------------|
--7-7-7-7-7-7-7-7-6-6-6-6-6-6-6-6-|--7-7-7-7-7-7-7-7-6-6-6-6-6-6-6-6-|
----------------------------------|----------------------------------|


                                                                      
----------------------------------|----------------------------------|
----------------------------------|----------------------------------|
--7-7-7-7-7-7-7-7-6-6-6-6-6-6-6-6-|--7-7-7-7-7-7-7-7-6-6-6-6-6-6-6-6-|
----------------------------------|----------------------------------|


                                                                     
----------------------|----------------------|----------------------|
----------------------|----------------------|----------------------|
----------------------|----------------------|----------------------|
--7----7----7----7----|--7----7----7----8----|--7----7----7----7----|


                                                          
----------------------|----------------------------------|
----------------------|----------------------------------|
----------------------|--7-7-7-7-7-7-7-7-6-6-6-6-6-6-6-6-|
--7----7----7----8----|----------------------------------|


                                                                      
----------------------------------|----------------------------------|
----------------------------------|----------------------------------|
--7-7-7-7-7-7-7-7-6-6-6-6-6-6-6-6-|--7-7-7-7-7-7-7-7-6-6-6-6-6-6-6-6-|
----------------------------------|----------------------------------|


                                                                      
----------------------------------|----------------------------------|
----------------------------------|----------------------------------|
--7-7-7-7-7-7-7-7-6-6-6-6-6-6-6-6-|--7-7-7-7-7-7-7-7-6-6-6-6-6-6-6-6-|
----------------------------------|----------------------------------|


                                                          
----------------------------------|----------------------|
----------------------------------|----------------------|
--7-7-7-7-7-7-7-7-6-6-6-6-6-6-6-6-|----------------------|
----------------------------------|--7----7----7----7----|


                                                                     
----------------------|----------------------|----------------------|
----------------------|----------------------|----------------------|
----------------------|----------------------|----------------------|
--7----7----7----8----|--7----7----7----7----|--7----7----7----8----|


                                                                      
----------------------------------|----------------------------------|
----------------------------------|----------------------------------|
--7-7-7-7-7-7-7-7-6-6-6-6-6-6-6-6-|--7-7-7-7-7-7-7-7-6-6-6-6-6-6-6-6-|
----------------------------------|----------------------------------|


                                                                      
----------------------------------|----------------------------------|
----------------------------------|----------------------------------|
--7-7-7-7-7-7-7-7-6-6-6-6-6-6-6-6-|--7-7-7-7-7-7-7-7-6-6-6-6-6-6-6-6-|
----------------------------------|----------------------------------|


                                                                      
----------------------------------|----------------------------------|
----------------------------------|----------------------------------|
--7-7-7-7-7-7-7-7-6-6-6-6-6-6-6-6-|--7-7-7-7-7-7-7-7-6-6-6-6-6-6-6-6-|
----------------------------------|----------------------------------|


                                                                     
----------------------|----------------------|----------------------|
----------------------|----------------------|----------------------|
----------------------|----------------------|----------------------|
--7----7----7----7----|--7----7----7----8----|--7----7----7----7----|


                                                          
----------------------|----------------------------------|
----------------------|----------------------------------|
----------------------|--7-7-7-7-7-7-7-7-6-6-6-6-6-6-6-6-|
--7----7----7----8----|----------------------------------|


                                                                      
----------------------------------|----------------------------------|
----------------------------------|----------------------------------|
--7-7-7-7-7-7-7-7-6-6-6-6-6-6-6-6-|--7-7-7-7-7-7-7-7-6-6-6-6-6-6-6-6-|
----------------------------------|----------------------------------|


                                                                      
----------------------------------|----------------------------------|
----------------------------------|----------------------------------|
--7-7-7-7-7-7-7-7-6-6-6-6-6-6-6-6-|--7-7-7-7-7-7-7-7-6-6-6-6-6-6-6-6-|
----------------------------------|----------------------------------|


                                                          
----------------------------------|----------------------|
----------------------------------|----------------------|
--7-7-7-7-7-7-7-7-6-6-6-6-6-6-6-6-|----------------------|
----------------------------------|--7----7----7----7----|


                                                                     
----------------------|----------------------|----------------------|
----------------------|----------------------|----------------------|
----------------------|----------------------|----------------------|
--7----7----7----8----|--7----7----7----7----|--7----7----7----8----|


                                                                      
----------------------------------|----------------------------------|
----------------------------------|----------------------------------|
----------------------------------|----------------------------------|
--0-0-0-0-0-0-0-0-3-3-3-3-6-6-6-6-|--5-5-5-5-5-5-5-5-5-5-5-5-5-5-5-5-|


                                                                      
----------------------------------|----------------------------------|
----------------------------------|----------------------------------|
----------------------------------|----------------------------------|
--0-0-0-0-0-0-0-0-3-3-3-3-6-6-6-6-|--5-5-5-5-5-5-5-5-5-5-5-5-5-5-5-5-|


                                                                      
----------------------------------|----------------------------------|
----------------------------------|----------------------------------|
----------------------------------|----------------------------------|
--0-0-0-0-0-0-0-0-3-3-3-3-6-6-6-6-|--5-5-5-5-5-5-5-5-5-5-5-5-5-5-5-5-|


                                                                      
----------------------------------|----------------------------------|
----------------------------------|----------------------------------|
----------------------------------|----------------------------------|
--0-0-0-0-0-0-0-0-3-3-3-3-6-6-6-6-|--5-5-5-5-5-5-5-5-5-5-5-5-5-5-5-5-|


                                                                      
----------------------------------|----------------------------------|
----------------------------------|----------------------------------|
----------------------------------|----------------------------------|
--0-0-0-0-0-0-0-0-3-3-3-3-6-6-6-6-|--5-5-5-5-5-5-5-5-5-5-5-5-5-5-5-5-|


                                                                      
----------------------------------|----------------------------------|
----------------------------------|----------------------------------|
----------------------------------|----------------------------------|
--0-0-0-0-0-0-0-0-3-3-3-3-6-6-6-6-|--5-5-5-5-5-5-5-5-5-5-5-5-5-5-5-5-|


                                                                      
----------------------------------|----------------------------------|
----------------------------------|----------------------------------|
----------------------------------|----------------------------------|
--0-0-0-0-0-0-0-0-3-3-3-3-6-6-6-6-|--5-5-5-5-5-5-5-5-5-5-5-5-5-5-5-5-|


                                                                      
----------------------------------|----------------------------------|
----------------------------------|----------------------------------|
----------------------------------|----------------------------------|
--0-0-0-0-0-0-0-0-3-3-3-3-6-6-6-6-|--5-5-5-5-5-5-5-5-5-5-5-5-5-5-5-5-|


                                                                      
----------------------------------|----------------------------------|
----------------------------------|----------------------------------|
--7-7-7-7-7-7-7-7-6-6-6-6-6-6-6-6-|--7-7-7-7-7-7-7-7-6-6-6-6-6-6-6-6-|
----------------------------------|----------------------------------|


                                                                      
----------------------------------|----------------------------------|
----------------------------------|----------------------------------|
--7-7-7-7-7-7-7-7-6-6-6-6-6-6-6-6-|--7-7-7-7-7-7-7-7-6-6-6-6-6-6-6-6-|
----------------------------------|----------------------------------|


                                                             
---------------------|------------------|------------------||
---------------------|------------------|------------------||
--6--6--6------------|------------------|------------------||
---------------------|------------------|------------------||
            
Hard to play? Try these video lessons and learn fast. | Correct




comments powered by Disqus
↑ Back to top | Tablatures and chords are parodies/interpretations of the original songs. You may use it for private study, scholarship, research or language learning purposes only