» » »

Dark Throne, The Serpents Harvest Tabs (ver.1)

Artists:  A B C D E F G H I J K L M N O P Q R S T U V W X Y Z # 

The Serpents Harvest Tabs (ver.1)

Dark Throne Tabs
 Rating:
4/5 (4 votes)
The Serpents Harvest lessons Tabs too difficult? Try these video lessons and learn fast
                For questions, comments,or corrections contact
Tablature Notation:
x  - palm mute                  /  - slide up to
\  - slide down to              ~  - vibrato
h  - hammer on                  b  - bend
p  - pull off                   Suffixes for bend
ph - pinch harmonic             f - full bend    h - half bend
*  - see comment                r - release      t - tap bend
X  - percussion mute            ~ - vibrato bend
@  - slight palm mute           () - ghost note, sustained note
 Tuning : (Low To High : D G C F A D)
Riff 1A
 intro                                   (Play this for 17 times)
|-----------------------------------|----------------------------------|
|-----------------------------------|----------------------------------|
|-----------------------------------|----------------------------------|
|-----------------------------------|----------------------------------|
|-------------8-7-------------------|------------8-7-------------------|
|-12/6--666-5-----4--4-5-5-4-4-5-6--|---6--666-5-----4--4-5-5-4-4-5-6--|
                       .........     (Feel the burning flame as the sun deserts....
 |-----------------------------------|
 |-----------------------------------|    (This is the last part of riff 1A
 |-----------------------------------|    listen to the recording to keep along)
 |-----------------------------------|
 |-------------8-7-------------------|
 |-12/6--666-5-----4--4-5-5-4-4-5-13-|
(But a heart of scorn and painfull anger)
Riff 2A         (Play 2x)
|------------------------------------------------------------|----------------------------------------------------------|
|------------------------------------------------------------|----------------------------------------------------------|
|------------------------------------------------------------|----------------------------------------------------------|
|-4--4-4-4--4-4-4--4-4-5--5-5-4--4-4-4--4-4-8--8-8-8--8-8----|-4--4-4-4--4-4-4--4-4-5--5-5-4--4-4-4--4-4-5--5-5-5--5-5--|
|-4--4-4-4--4-4-4--4-4-5--5-5-4--4-4-4--4-4-8--8-8-8--8-8----|-4--4-4-4--4-4-4--4-4-5--5-5-4--4-4-4--4-4-5--5-5-5--5-5--|
|-2--2-2-2--2-2-2--2-2-3--3-3-2--2-2-2--2-2-6--6-6-6--6-6----|-2--2-2-2--2-2-2--2-2-3--3-3-2--2-2-2--2-2-3--3-3-3--3-3--|
                                          Orgy of destruction - A "gesture of mind"
      2x                                   Gaze at the grey sky - hatred and poison
|------------------------------------------------------------|----------------------------------------------------------|
|------------------------------------------------------------|----------------------------------------------------------|
|------------------------------------------------------------|----------------------------------------------------------|
|-4--4-4-4--4-4-4--4-4-5--5-5-4--4-4-4--4-4-7--7-7-7--7-7----|-4--4-4-4--4-4-4--4-4-5--5-5-4--4-4-4--4-4-8--8-8-8--8-8--|
|-4--4-4-4--4-4-4--4-4-5--5-5-4--4-4-4--4-4-7--7-7-7--7-7----|-4--4-4-4--4-4-4--4-4-5--5-5-4--4-4-4--4-4-8--8-8-8--8-8--|
|-2--2-2-2--2-2-2--2-2-3--3-3-2--2-2-2--2-2-5--5-5-5--5-5----|-2--2-2-2--2-2-2--2-2-3--3-3-2--2-2-2--2-2-6--6-6-6--6-6--|

Riff 2B
|-----------------------------|-------------------------|--------------------------|-------------------------|
|-----------------------------|-------------------------|--------------------------|-------------------------|
|-----------------------------|-------------------------|--------------------------|-------------------------|
|-4---------------------------|-5-----------------------|-4------------------------|-3-----------------------|
|-4---------------------------|-5-----------------------|-4------------------------|-3-----------------------|
|-2---------------------------|-3-----------------------|-2------------------------|-1-----------------------|
solo
|---------------------------------------|---------------------------------------------|-------------------------------------------|
|---------------------------------------|---------------------------------------------|-------------------------------------------|
|---------------------------------------|---------------------------------------------|-------------------------------------------|
|---------------------------------------|---------------------------------------------|-------------------------------------------|
|2121212121-2020202020-1919191919191919-|-1818181818-1919191919-1818181818-1717171717-|-1818181818-1919191919-2020202020-21212121-|
|---------------------------------------|---------------------------------------------|-------------------------------------------|
|---------------------------------------|-------------------------------------------|------------------------------------------------|
|---------------------------------------|-------------------------------------------|------------------------------------------------|
|---------------------------------------|-------------------------------------------|------------------------------------------------|
|---------------------------------------|-------------------------------------------|------------------------------------------------|
|-2020202020-1919191919-1818181818-1919-|-191919-2020202020-1919191919191919-181818-|-181818-1919191919-1818181818181818-1717171717--|
|---------------------------------------|-------------------------------------------|------------------------------------------------|
|------------------------------------------------------|  Im not sure about the solo part but this
|------------------------------------------------------|  what i think it is atleast it sounds  like it
|------------------------------------------------------|
|------------------------------------------------------|
|-1818181818-1919191919-2020202020--22--21--19--20-----|
|------------------------------------------------------|
Then after the solo you play riff one and then the song ends.
            
Submit corrections

comments powered by Disqus
↑ Back to top | Dark Throne Tabs for The Serpents Harvest. Lyrics for acoustic guitar and electric guitar. Tablatures and chords are parodies/interpretations of the original songs. You may use it for private study, scholarship, research or language learning purposes only