» » »

The Hordes Of Nebulah Tabs (ver.1)

Artists:  A B C D E F G H I J K L M N O P Q R S T U V W X Y Z # 

The Hordes Of Nebulah Tabs (ver.1)

Dark Throne
Rating:
0/5 (0 votes)

Hard to play? Try these video lessons and learn fast.
                For questions, comments,or corrections contact

Tablature Notation:
x  - palm mute                  /  - slide up to
\  - slide down to              ~  - vibrato
h  - hammer on                  b  - bend
p  - pull off                   Suffixes for bend
ph - pinch harmonic             f - full bend    h - half bend
r - release                      t - tap bend
X  - percussion mute            ~ - vibrato bend
@  - slight palm mute           () - ghost note, sustained note
 Tuning : (regular E,A,D,G,B,E)
Riff 1A
|-----------------------------------------------|   (Play Riff 1A for 12 times,
|-----------------------------------------------|    second guitar plays the same
|-----------------------------------------------|    but it starts playing at the third
|-----------------------------------------------|    time guitar one plays the first riff)
|-----------------------------------------------|
|--(2)--2-2-2-3b--(2)--2-2-2-3b--(2)--2-2-2-3b--|
Riff 1B       (play for 4 times)
|------------------------------------------------|   (After playing riff 1B repeat riff 1A
|------------------------------------------------|    listen to the recording so that you
|------------------------------------------------|    could know how to play along with the
|------------------------------------------------|    recording)
|------------------------------------------------|
|--(5)--5-5-5-4b--(5)--5-5-5-4b---(5)--5-5-5-3b--|

Riff 2A                           (rhythm guitar)
|------------------------------------------------------|
|------------------------------------------------------|
|------------------------------------------------------|
|------------------------------------------------------|
|------------------------------------------------------|
|--(2)--2-2-2-2-2-2-2\3-4--2~--(2)-4-(3)-3-4-5-5-5-4b--|
  solo                        (lead guitar)
|------------------------------------------|   (this solo part is played
|------------------------------------------|    when the rhythm guitar gets
|------------------------------------------|    to the fifth time playing riff
|--2~--3~--5~--6--(4)--3b--4-5-6-7--9b-----|    2A the lead guitar plays along.
|------------------------------------------|    Listen to the recording)
|------------------------------------------|
2nd solo     tremolo                      (lead guitar)                              (Im not sure about this
|----------------------------------------------------------------------------------| solo part but it sounds
|----------------------------------------------------------------------------------|  pretty good to me)
|----------------------------------------------------------------------------------|
|--2222222-33333333-555555566666667777777-999999111111111-12b12b12b13b13b13b14b14b-|
|----------------------------------------------------------------------------------|
|----------------------------------------------------------------------------------|
 (Im not sure how many times does he pick but listen to the
 recording to keep along)
Riff 2b
|------------------------------------------------------|
|------------------------------------------------------|
|------------------------------------------------------|
|------------------------------------------------------|
|------------------------------------------------------|
|--4-3-3-3-3-3-3-3-3--3-2-1~---------------------------|
            
Hard to play? Try these video lessons and learn fast. | Correct




comments powered by Disqus
↑ Back to top | Tablatures and chords are parodies/interpretations of the original songs. You may use it for private study, scholarship, research or language learning purposes only