» » »

Sempiternal Sepulchrality Tabs (ver.1)

Artists:  A B C D E F G H I J K L M N O P Q R S T U V W X Y Z # 

Sempiternal Sepulchrality Tabs (ver.1)

Dark Throne
Rating:
0/5 (0 votes)

Tabs too difficult? Try these video lessons and learn fast.
                 Artist		: Darkthrone
 Song		: Sempiternal Sepulchrality
 Album		: Soulside Journey
 Last Update	: 10 Dec 2009

tune down 1 1/2 steps

0:00
|-------------------------------------------------------------------------|x1
|-------------------------------------------------------------------------|
|-------------------------------------------------------------------------|
|-5-----5-7-5---5---2-----2-4-2---2---3-----3-5-3---3---7-----7-9-7---7---|
|-5---5-------5-----2---2-------2-----3---3-------3-----7---7-------7-----|
|-3-----------------0-----------------1-----------------5-----------------|

0:13
|-------------------------|x4
|-------------------------|
|-------------------------|
|-------------------------|
|----3"-5"-4"----2"-4"-3"-|
|-3"----------2"----------|

0:23
|-------------------------------------------|x2
|-------------------------------------------|
|-------------------------------------------|
|-------6---5-------5---4-------6---5-------|
|-------4---3-------3---2-------4---3-------|
|-0-3-4-------0-2-3-------0-3-4-------1"-2"-|

0:33
|----------------------|x4
|----------------------|
|----------------------|
|-2"-------------------|
|----------2-2-x-5-6-3-|
|----3-4-1-0-0-x-3-4-1-|

0:48
|---|x1
|---|
|---|
|-2-|
|-2-|
|-0-|

0:52
|-------------------------------------------------------------|x1
|-------------------------------------------------------------|
|-------------------------------------------------------------|
|----------------------------6"----------------------------5"-|
|----4"-3"----6"----4"-3"----------4"-3"----6"----4"-3"-------|
|-3"-------4"----3"-------4"----3"-------4"----3"-------4"----|

|-------------------------------------------------------------|x1
|-------------------------------------------------------------|
|-------------------------------------------------------------|
|----------------------------4"----------------------------3"-|
|----2"-1"----4"----2"-1"----------2"-1"----4"----2"-1"-------|
|-1"-------2"----1"-------2"----1"-------2"----1"-------2"----|

|-------------------------------------------------------------|x1
|-------------------------------------------------------------|
|-------------------------------------------------------------|
|----------------------------6"----------------------------5"-|
|----4"-3"----6"----4"-3"----------4"-3"----6"----4"-3"-------|
|-3"-------4"----3"-------4"----3"-------4"----3"-------4"----|

|-------------------------------------------------------------|x1
|-------------------------------------------------------------|
|-------------------------------------------------------------|
|----------------------------4"----------------------------3"-|
|----2"-1"----4"----2"-1"----------2"-1"----4"----2"-1"-------|
|-1"-------2"----1"-------2"----1"-------2"----1"-------2"----|

1:22
|-------------------------|x1 + x4
|-------------------------|
|-------------------------|
|-------------------------|
|-----5-4---7-----5-4-----|
|-0-3-----5---0-3-----5-4-|

1:37
|-------------|x1 + x4
|-------------|
|-------------|
|----5"-------|
|-------4"----|
|-2"-------1"-|

1:50
|----------------------------|x1 + x4
|----------------------------|
|----------------------------|
|-2"----2"----2"-------------|
|----3"----2"----5"-3"--2----|
|--------------------------3-|

2:06
|----------------------------------|x2
|----------------------------------|
|----------------------------------|
|----------------------------------|
|----3"-2"-5"-3"-------3"-2"-------|
|-0"-------------3"-0"-------3"-1"-|
  .  .  .  .  .  .  .  .  .  .  .

2:21
|----------------------|x4
|----------------------|
|----------------------|
|-2"-------------------|
|----------2-2-x-5-6-3-|
|----3-4-1-0-0-x-3-4-1-|

2:35
|-----------------------------|x1
|-----------------------------|
|-----------------------------|
|----*------------------2"----|
|-2"(3)-----------2"(3)-------|
|-------3----0-------------1"-|

|-----------------------------|x2
|-----------------------------|
|-----------------------------|
|-----------------------2"----|
|-2"(3)-----------2"(3)-------|
|-------3"---0"------------1"-|
* something like 22222233222332222...

2:56
|---------------------|x6 + x8
|---------------------|
|---------------------|
|---------------------|
|---------------------|
|-0"-1"-4"---0"-1"-5"-|

3:23
|---|x1
|---|
|---|
|-2-|
|-2-|
|-0-|
            
Tabs too difficult? Try these video lessons and learn fast.




comments powered by Disqus
↑ Back to top | Tablatures and chords are parodies/interpretations of the original songs. You may use it for private study, scholarship, research or language learning purposes only