» » »

Dark Throne, Sacrificing To The God Of Doub Tabs (ver.1)

Artists:  A B C D E F G H I J K L M N O P Q R S T U V W X Y Z # 

Sacrificing To The God Of Doub Tabs (ver.1)

Dark Throne Tabs
 Rating:
4/5 (4 votes)
Sacrificing To The God Of Doub lessons Tabs too difficult? Try these video lessons and learn fast
1
                
Copyright (c) Moonfog productions
Version 1.0 - 12.7.2006


.  - palm mute           /  - slide up to
\  - slide down to       ~  - vibrato
h  - hammer on           b  - Bend
p  - pull off            Suffixes for bend
t  - tap                 f  - full bend    h - half bend
ph - pinched harmonic    q  - quarter bend t - tap bend
*  - see comment         ^  - Hold bend    r release bend
x  - Stuccatto           ~  - vibrato bend
,  - slight palm mute    () - ghost note, sustained note
"  - tremolo note        <> - Trill

Tuning D (DGCFAd)


 Riff 1 x8
D|-----------------------------------------|
A|-----------------------------------------|
F|-----------------------------------------|
C|-5h7--7777--5h7--7777--5h7--77777755-88--|
G|-0------(0)-0------(0)-0---------(0)-66--|
D|-----------------------------------------|


 Riff 2 x4
D|-----------------------------------|
A|-----------------------------------|
F|-----------------------------------|
C|-5-5555-5-5555-5-5555-5-5555-5588--|
G|-0-0000-0-0000-0-0000-0-0000-0066--|
D|-----------------------------------|
     ....   ....   ....   .... 


 Riff 1 x4
 Riff 2 x4


 Riff 3 x3
D|-------------------------------------------------------------|
A|-----3--------------3-------------3--------------3-----------|
F|-----3--------------3-------------3--------------3-----------|
C|-----5--------------5-------------5--------------5-----------|
G|-----5--------------5-------5-----5--------------5------54~--|
D|-3-3-3---33-2-2-3-3-3---33-4--3-3-3---33-2-2-3-3-3---33------|


Fill x1
|----------------------------------|
|----------------------------------|
|----------------------------------|
|-----5----55-544--5----5--555/7-7-|
|-7-7-7----77-766--7----7--777/9-9-|
|---------------------0------------|
                      .

 Riff 4 x3
|----------------------------------|
|----------------------------------|
|----------------------------------|
|-5----5--554-4--5----5--555/7-7---|
|-7----7--776-6--7----7--777/9-9---|
|----0--------------0--------------|
     .              .

 Riff 3 x2
 Fill   x1
 Riff 4 x3
 Riff 1 x8
 Riff 2 x4
 Riff 1 x4
 Riff 2 x4
  end
            
Submit corrections

comments powered by Disqus
↑ Back to top | Dark Throne Tabs for Sacrificing To The God Of Doub. Lyrics for acoustic guitar and electric guitar. 1 Tablatures and chords are parodies/interpretations of the original songs. You may use it for private study, scholarship, research or language learning purposes only