» » »

Dark Throne, In Honor Of Thy Name Bass tabs (ver.1)

Artists:  A B C D E F G H I J K L M N O P Q R S T U V W X Y Z # 

In Honor Of Thy Name Bass tabs (ver.1)

Dark Throne Tabs
 Rating:
4/5 (4 votes)
In Honor Of Thy Name lessons Tabs too difficult? Try these video lessons and learn fast
1
                Tune ToEb,Ab,Db,Gb
Riff1
G|---------|    |-----------------|
D|---------|    |-----------------|
A|-3---3-1-| x7 |-4-4-----4-4-4-4-|
E|---3-----|    |-----4-4---------|

Riff2 X7
G|---------|  |------------------------|
D|---------|  |------------------------|
A|-3---3---|  |-4-4----4-4-4-4-4-4-4-4-|
E|---3---1-|  |-----4-4----------------|

Riff3
G|-------------------|-------------------|
D|-------------------|-------------------|
A|-1-3-1-3-1-3-1-3-A-|-3-4-4-4-3-4-4-4-4-|
E|-------------------|-------------------|

Riff4
G|-----------------------------------|
D|-----------------------------------|
A|-1-3-1-3-1-3-1-3-3-4-4-4-4-5-5-5-5-|
E|-----------------------------------|

Riff5
G|-------------------------|
D|-------------------------|
A|-1-3-1-3-1-3-1-3---------|
E|-----------------3-2-2-1-|

Riff 6
G|-------------------------------------|
D|-------------------------------------|
A|-1-3-1-3-1-3-1-3-3-4-4-4-6-6-6-6-6-6-|
E|-------------------------------------|

Riff 7
G|---------------------------------|
D|---------------------------------| 8x
A|-3-3-3-3-3-3-3-3-6-7-4-6-2-2-2-4-|
E|---------------------------------|
RepeatRiff 3
Riff 4
Riff 3 
Riff 5
Riff 3 
Riff 4
Riff 3
Riff 6
Repeat these riffs  
Riff 7 x8
Riff 1 lots at the end
            
Submit corrections

comments powered by Disqus
↑ Back to top | Dark Throne Bass for In Honor Of Thy Name. Lyrics for acoustic guitar and electric guitar. 1 Tablatures and chords are parodies/interpretations of the original songs. You may use it for private study, scholarship, research or language learning purposes only