» » »

Dark Throne, Hans Siste Vinter Bass tabs (ver.1)

Artists:  A B C D E F G H I J K L M N O P Q R S T U V W X Y Z # 

Hans Siste Vinter Bass tabs (ver.1)

Dark Throne Tabs
Rating:
0/5 (0 votes)
Hans Siste Vinter lessons Tabs too difficult? Try these video lessons and learn fast
                G||-----------------------|----------------------|----------------------|
D||*----------------------|----------------------|----------------------|
A||*--1----1----1----1----|--1----1----1----1----|----------------------|
E||-----------------------|----------------------|--2----2----2----2----|


                       8x                                              
-----------------------||----------------------|----------------------|
----------------------*||----------------------|----------------------|
----------------------*||--1----1----1----1----|--1----1----1----1----|
--2----2----2----2-----||----------------------|----------------------|


                                                                       
----------------------|----------------------||-----------------------|
----------------------|----------------------||*----------------------|
----------------------|----------------------||*----------------------|
--2----2----2----2----|--2----2----2----2----||---4----4----4----4----|


                                                                       
----------------------|----------------------|-----------------------||
----------------------|----------------------|----------------------*||
----------------------|----------------------|----------------------*||
--4----4----4----4----|--2----2----2----2----|--2----2----2----2-----||


                                                                       
----------------------||-----------------------|----------------------|
----------------------||*----------------------|----------------------|
----------------------||*--1----1----1----1----|--1----1----1----1----|
--2----2----2----2----||-----------------------|----------------------|


                                              3x                        
----------------------|-----------------------||-----------------------|
----------------------|----------------------*||*----------------------|
----------------------|----------------------*||*----------------------|
--2----2----2----2----|--2----2----2----2-----||---4----4----4----4----|


                                                                     5x
----------------------|----------------------|-----------------------||
----------------------|----------------------|----------------------*||
----------------------|----------------------|----------------------*||
--4----4----4----4----|--2----2----2----2----|--2----2----2----2-----||


                                                                       
----------------------|----------------------||-----------------------|
----------------------|----------------------||*----------------------|
----------------------|----------------------||*----------------------|
--4----4----4----4----|--2----2----2----2----||---4----4----4----4----|


                                                                       
----------------------|----------------------|-----------------------||
----------------------|----------------------|----------------------*||
----------------------|----------------------|----------------------*||
--4----4----4----4----|--2----2----2----2----|--2----2----2----2-----||


                                                                       
----------------------||-----------------------|----------------------|
----------------------||*----------------------|----------------------|
----------------------||*--1----1----1----1----|--1----1----1----1----|
--2----2----2----2----||-----------------------|----------------------|


                                              3x                        
----------------------|-----------------------||-----------------------|
----------------------|----------------------*||*----------------------|
----------------------|----------------------*||*--1----1----1----1----|
--2----2----2----2----|--2----2----2----2-----||-----------------------|


                                                                     9x
----------------------|----------------------|-----------------------||
----------------------|----------------------|----------------------*||
--1----1----1----1----|----------------------|----------------------*||
----------------------|--2----2----2----2----|--2----2----2----2-----||
            
Submit corrections

comments powered by Disqus
↑ Back to top | Dark Throne Bass for Hans Siste Vinter. Lyrics for acoustic guitar and electric guitar. Tablatures and chords are parodies/interpretations of the original songs. You may use it for private study, scholarship, research or language learning purposes only