» » »

Eon Tabs (ver.1)

Artists:  A B C D E F G H I J K L M N O P Q R S T U V W X Y Z # 

Eon Tabs (ver.1)

Dark Throne
Rating:
0/5 (0 votes)

Hard to play? Try these video lessons and learn fast.
                EON
By Darkthrone

Okay, to play this song you need put your guitar in Drop D, then drop ALL the 
strings a half-step from there. It's not as hard as it sounds.  Darkthrone has
very unique, rhythmic guitar on this song, so you'll have to listen to the song
as you play/read this tablature to get it right.

( ) = palm mute

F#|------------------------------|-----------------|
A#|------------------------------|-----------------|
F#|------------------------------|-----------------|
C#|------------------------------|-----------------| x3
G#|-0--1-0-2--0--1-0-2--0--1-0-2-|-3-(3-3-3-4-4)-4-|
C#|-0---------0---------0--------|-3-(3-3-3-4-4)-4-|

|----------------------------------------------|-----------------|
|----------------------------------------------|-----------------|
|----------------------------------------------|-----------------|
|----------------------------------------------|-----------------|
|-0-1-0--2-(3-3)-0-1-0--2-(3-3)-0-1-0--2-(3-3)-|-3-(3-3-3-4-4)-4-|
|-0--------(3-3)-0--------(3-3)-0--------(3-3)-|-3-(3-3-3-4-4)-4-|

                                  A#  A          B   A#
|-------------------------|-------------------------------|
|-----------x2------------|--------------x2---------------|
|-------------------------|-------------------------------|
|-------------------------|--------3-2-4-3--------4-3-5-4-|
|-0--0--0--0--1--1--5--3--|-2--2--1---2----3--3--2---3----|
|-0--0--0--0--1--1--5--3--|-2--2-----------3--3-----------|

                                  C#  C          D   C#
|-------------------------|-------------------------------|
|-----------x2------------|--------------x2---------------|
|-------------------------|-------------------------------|
|-------------------------|--------5-4-6-5--------6-5-7-6-|
|-0--0--0--0--1--1--5--3--|-2--2--4---5----3--3--5---6----|
|-0--0--0--0--1--1--5--3--|-2--2-----------3--3-----------|


|------------------|
|------------------|
|------------------|
|--5-4-6-5-5-4-6-5-|
|-3---4---3---4----|
|------------------|

|--------------------------------------------------|
|--------------------------------------------------|
|--------------------------------------------------|
|--------------------------------------------------|
|-0--3-2-6--1--5---0--3-2-6--1--5--0--3-2-6--5--1--|
|-0--3-2-6--1--5---0--3-2-6--1--5--0--3-2-6--5--1--|

  C#   D                G#   A
|-----------------------------------| I can't tab this line because you can't
|-----------------------------------| hear the guitar (the synthesizer vocals
|-----------------------------------| block it out). I can hear more than a chord,
|-----------------------------------| but can't distinguish the notes.  I even 
|-----------------------------------| referred to their demo, but they left this 
|-----------------------------------| riff out in the original version.

|------------------------------------------------------------------|
|------------------------------------------------------------------|
|------------------------------------------------------------------|
|------------------------------------------------------------------|
|------------------------------------------------------------------|
|-0-0-0-0-3-2-6-6-1-1-1-1-5-5-5-5-0-0-0-0-3-2-6-6-5-5-5-5-1-1-1-1--|

|---------------------------------------------------|
|---------------------------------------------------|
|---------------------------------------------------|
|---------------------------------------------------| x4
|-(3-3-3-3-3-3-2-2-2-2-2-2-5-5-5-5-5-5-8-8-8-4-4-4)-|
|-(3-3-3-3-3-3-2-2-2-2-2-2-5-5-5-5-5-5-8-8-8-4-4-4)-|

|-------------------------------------------------|
|-------------------------------------------------|
|-------------------------------------------------|
|-------------------------------------------------| x2
|-3-3-3-2-2-2-1-1-1-1-1-1-3-3-3-7-7-7-6-6-6-6-6-6-|
|-3-3-3-2-2-2-1-1-1-1-1-1-3-3-3-7-7-7-6-6-6-6-6-6-|

|-------------------------------------------------|
|-------------------------------------------------|
|-------------------------------------------------|
|-------------------------------------------------|
|-3-3-3-2-2-2-1-1-1-1-1-1-3-3-3-2-2-2-0-0-0-0-0-0-|
|-3-3-3-2-2-2-1-1-1-1-1-1-3-3-3-2-2-2-0-0-0-0-0-0-|

|-------------------------------------------------|
|-------------------------------------------------|
|-------------------------------------------------|
|-------------------------------------------------|
|-3-3-3-2-2-2-1-1-1-1-1-1-3-3-3-2-2-2-0-----------| let ring
|-3-3-3-2-2-2-1-1-1-1-1-1-3-3-3-2-2-2-0-----------|

|-----------------------------------------------------|
|-----------------------------------------------------|
|-----------------------------------------------------|
|-----------------------------------------------------| x2
|-0-0-0-0-7---3-4-3--2-3-2--0-0-0-0-7---8-9-8--7-8-7--|
|-0-0-0-0-7---3-4-3--2-3-2--0-0-0-0-7---8-9-8--7-8-7--|

|--------------------------------------|
|--------------------------------------|
|--------------------------------------|
|--------------------------------------| x4
|-(0-7-0-0-9-0-0-8-0-0-7-0-0-7-0-0)-7--|
|-(0-7-0-0-9-0-0-8-0-0-7-0-0-7-0-0)-7--|

|---------------------------------------|
|---------------------------------------|
|---------------------------------------|
|---------------------------------------|
|-2--3-2-1-3--3-2-1-2--3-2-1-3--3-2-1-2-|
|-2--------3--------2--------3--------2-|

|-----------------------------------|
|-----------------------------------|
|-----------------------------------|
|-3-2-1------------3-2-1------------|
|-------3--3-2-1-2-------3--3-2-1-3-|
|-------3--------2-------3--------3-|

|------------------------------------|
|------------------------------------|
|------------------------------------|
|------------------------------------|
|-3-2-1-3--3-2-1-2--3-2-1-3--3-2-1-2-|
|-------3--------2--------3--------2-|

|---------------------------------------|
|---------------------------------------|
|---------------------------------------|
|-3-2-1------------3-2-1----------------|
|-------3--3-2-1-2-------3--3-2-1-0-----|
|-------3--------2-------3--------0-----|
            
Hard to play? Try these video lessons and learn fast. | Correct




comments powered by Disqus
↑ Back to top | Tablatures and chords are parodies/interpretations of the original songs. You may use it for private study, scholarship, research or language learning purposes only