» » »

Dark Throne, Cult Of Goliath Tabs (ver.1)

Artists:  A B C D E F G H I J K L M N O P Q R S T U V W X Y Z # 

Cult Of Goliath Tabs (ver.1)

Dark Throne Tabs
Rating:
0/5 (0 votes)
Cult Of Goliath lessons Tabs too difficult? Try these video lessons and learn fast
                
Copyright (c) 2006 peaceville
Version 1.0 - 1.8.2006



.  - palm mute           /  - slide up to
\  - slide down to       ~  - vibrato
h  - hammer on           b  - Bend
p  - pull off            Suffixes for bend
t  - tap                 f  - full bend    h - half bend
ph - pinched harmonic    q  - quarter bend t - tap bend
*  - see comment         ^  - Hold bend    r release bend
x  - Stuccatto           ~  - vibrato bend
,  - slight palm mute    () - ghost note, sustained note
"  - tremolo note        <> - Trill

Tuning E A D G B E

 Riff 1 x 4
|--------------------|
|--------------------|
|--------------------|
|------7-----8"--7"--|
|-7"---5-7"--6"--5"--|
|-5"-----5"----------|

 Riff 2 x 2
|--------------------|
|--------------------|
|--------------------|
|------7-----8"--7"--|
|-5"---5-7"--6"--5"--|
|-3"-----5"----------|

 Riff 3 x 4
|-------------------------------|
|-------------------------------|
|-------------------------------|
|------5------------------------|
|-7"---3-7"--6"----7"-6"-7"-8"--|
|-5"-----5"--4"----5"-4"-5"-6"--|

 Riff 1 x 4
 Riff 2 x 2
 Riff 3 x 4

 Riff 4 x 4            [.....I'm not sure from this part.........]
|----------------------------------------------------------------|
|----------------------------------------------------------------|
|----------------------------------------------------------------|
|-4"----4-3-4-5-4~"---------4----5------8"--9-----4----5-----8"--|
|-2"----2-1-2-3-2~"---------2----4------6"--7-----2----3-----6"--|
|----------------------0"-----0"---0"--------0"----0"---0"-------|

 Riff 1 x 2
 Riff 1+soolo x 2 (If anyone know this crazy solo tell me)
 Riff 2+soolo x 2 
 Riff 3 x 4
 Riff 1 x 4
 Riff 2 x 2
 Riff 3 x 4
 Riff 4 x 4

 END
|----------|
|----------|
|----------|
|-4--------|
|-2-----2--|
|-------0--|
            

comments powered by Disqus
↑ Back to top | Dark Throne Tabs for Cult Of Goliath. Lyrics for acoustic guitar and electric guitar. Tablatures and chords are parodies/interpretations of the original songs. You may use it for private study, scholarship, research or language learning purposes only