>
 >
Cromlech

Cromlech Bass Tabs

Dark Throne - Cromlech chords, tabs, tablatures, lyrics

Guitar lessons | Add/correct | Request | Top 50 tabs Artists:  A B C D E F G H I J K L M N O P Q R S T U V W X Y Z 0-9

Cromlech Bass Tabs – Dark Throne

CD, Sheet music, Poster

Do you like Cromlech? Share with your friends now
Bass TabsTabs
tune down

E ||----------------------------------|---------------------------------|
B ||----------------------------------|---------------------------------|
F#||----------------------------------|------------------------------5--|
C#||--3-3-3-3-4-4-4-4-2-2-5-5-1-1-4-4-|--3-3-3-3-4-4-4-4-7-7-6-6-7-7----|


                                                                     
----------------------------------|---------------------------------|
----------------------------------|---------------------------------|
----------------------------------|------------------------------5--|
--3-3-3-3-4-4-4-4-2-2-5-5-1-1-4-4-|--3-3-3-3-4-4-4-4-7-7-6-6-7-7----|


                                                                     
----------------------------------|---------------------------------|
----------------------------------|---------------------------------|
----------------------------------|------------------------------5--|
--3-3-3-3-4-4-4-4-2-2-5-5-1-1-4-4-|--3-3-3-3-4-4-4-4-7-7-6-6-7-7----|


                                                                     
----------------------------------|---------------------------------|
----------------------------------|---------------------------------|
----------------------------------|------------------------------5--|
--3-3-3-3-4-4-4-4-2-2-5-5-1-1-4-4-|--3-3-3-3-4-4-4-4-7-7-6-6-7-7----|


                                                                     
----------------------------------|---------------------------------|
----------------------------------|---------------------------------|
----------------------------------|------------------------------5--|
--3-3-3-3-4-4-4-4-2-2-5-5-1-1-4-4-|--3-3-3-3-4-4-4-4-7-7-6-6-7-7----|


                                                                     
----------------------------------|---------------------------------|
----------------------------------|---------------------------------|
----------------------------------|------------------------------5--|
--3-3-3-3-4-4-4-4-2-2-5-5-1-1-4-4-|--3-3-3-3-4-4-4-4-7-7-6-6-7-7----|


                                                              
--------------------|-------------------|--------------------|
--------------------|-------------------|--------------------|
--------------------|--3----------------|--7--------3--------|
--0--------4--------|-------------------|--------------------|


                                                              
--------------------|--------------------|-------------------|
--------------------|--------------------|-------------------|
--5--------1--------|--------------------|--3----------------|
--------------------|--0--------4--------|-------------------|


                                                                             
--------------------|--------------------|----------------------------------|
--------------------|--------------------|----------------------------------|
--7--------3--------|--5--------1--------|------------------3-3-3-3-3-3-3-3-|
--------------------|--------------------|--0-0-0-0-4-4-4-4-----------------|


                                                                      
----------------------------------|----------------------------------|
--2-2-2-2---------0-0-0-0---------|----------------------------------|
----------3-3-3-3---------1-1-1-1-|------------------3-3-3-3-3-3-3-3-|
----------------------------------|--0-0-0-0-4-4-4-4-----------------|


                                                                      
----------------------------------|----------------------------------|
--2-2-2-2---------0-0-0-0---------|----------------------------------|
----------3-3-3-3---------1-1-1-1-|------------------3-3-3-3-3-3-3-3-|
----------------------------------|--0-0-0-0-4-4-4-4-----------------|


                                                                      
----------------------------------|----------------------------------|
--2-2-2-2---------0-0-0-0---------|----------------------------------|
----------3-3-3-3---------1-1-1-1-|------------------3-3-3-3-3-3-3-3-|
----------------------------------|--0-0-0-0-4-4-4-4-----------------|


                                                                      
----------------------------------|----------------------------------|
--2-2-2-2---------0-0-0-0---------|----------------------------------|
----------3-3-3-3---------1-1-1-1-|--5-5-5-5-8-5-8-5-5-5-5-5-8-5-8-5-|
----------------------------------|----------------------------------|


                                                                          
----------------------------------|--------------------------------------|
----------------------------------|--------------------------------------|
--3-3-3-3-6-3-6-3-3-3-3-3-6-3-6-3-|--7-7-7-7-10-7-10-7-7-7-7-7-10-7-10-7-|
----------------------------------|--------------------------------------|


                                                                        
------------------------------------|----------------------------------|
------------------------------------|----------------------------------|
--6-6-6-6-9-6-9-6-9-9-9-9-12-9-12-9-|--5-5-5-5-8-5-8-5-5-5-5-5-8-5-8-5-|
------------------------------------|----------------------------------|


                                                                          
----------------------------------|--------------------------------------|
----------------------------------|--------------------------------------|
--3-3-3-3-6-3-6-3-3-3-3-3-6-3-6-3-|--7-7-7-7-10-7-10-7-7-7-7-7-10-7-10-7-|
----------------------------------|--------------------------------------|


                                                                        
------------------------------------|----------------------------------|
------------------------------------|----------------------------------|
--6-6-6-6-9-6-9-6-9-9-9-9-12-9-12-9-|--5-5-5-5-8-5-8-5-5-5-5-5-8-5-8-5-|
------------------------------------|----------------------------------|


                                                                          
----------------------------------|--------------------------------------|
----------------------------------|--------------------------------------|
--3-3-3-3-6-3-6-3-3-3-3-3-6-3-6-3-|--7-7-7-7-10-7-10-7-7-7-7-7-10-7-10-7-|
----------------------------------|--------------------------------------|


                                                                        
------------------------------------|----------------------------------|
------------------------------------|----------------------------------|
--6-6-6-6-9-6-9-6-9-9-9-9-12-9-12-9-|--5-5-5-5-8-5-8-5-5-5-5-5-8-5-8-5-|
------------------------------------|----------------------------------|


                                                                          
----------------------------------|--------------------------------------|
----------------------------------|--------------------------------------|
--3-3-3-3-6-3-6-3-3-3-3-3-6-3-6-3-|--7-7-7-7-10-7-10-7-7-7-7-7-10-7-10-7-|
----------------------------------|--------------------------------------|


                                                                        
------------------------------------|----------------------------------|
------------------------------------|----------------------------------|
--6-6-6-6-9-6-9-6-9-9-9-9-12-9-12-9-|--5-5-5-5-8-5-8-5-5-5-5-5-8-5-8-5-|
------------------------------------|----------------------------------|


                                                                          
----------------------------------|--------------------------------------|
----------------------------------|--------------------------------------|
--3-3-3-3-6-3-6-3-3-3-3-3-6-3-6-3-|--7-7-7-7-10-7-10-7-7-7-7-7-10-7-10-7-|
----------------------------------|--------------------------------------|


                                                                          
------------------------------------|------------------------------------|
------------------------------------|------------------------------------|
--6-6-6-6-9-6-9-6-9-9-9-9-12-9-12-9-|------------------4--3-----3--2-----|
------------------------------------|--1-1-1-1-2-2-2-2-------4--------3--|


                                                                          
------------------------------------|------------------------------------|
------------------------------------|------------------------------------|
------------------4--3-----3--2-----|------------------4--3-----3--2-----|
--1-1-1-1-2-2-2-2-------4--------3--|--1-1-1-1-2-2-2-2-------4--------3--|


                                                                               
------------------------------------|------|------|------|------|------|------|
------------------------------------|------|------|------|------|------|------|
------------------4--3-----3--2-----|------|------|------|------|------|------|
--1-1-1-1-2-2-2-2-------4--------3--|------|------|------|------|------|------|


                                                                             
------|------|------|------|------|------|------|------|------|------|------|
------|------|------|------|------|------|------|------|------|------|------|
------|------|------|------|------|------|------|------|------|------|------|
------|------|------|------|------|------|------|------|------|------|------|


                                                                      
------|------|------|------|------|----------------------------------|
------|------|------|------|------|----------------------------------|
------|------|------|------|------|----------------------------------|
------|------|------|------|------|--3-3-3-3-4-4-4-4-2-2-5-5-1-1-4-4-|


                                                                     
---------------------------------|----------------------------------|
---------------------------------|----------------------------------|
------------------------------5--|----------------------------------|
--3-3-3-3-4-4-4-4-7-7-6-6-7-7----|--3-3-3-3-4-4-4-4-2-2-5-5-1-1-4-4-|


                                                                     
---------------------------------|----------------------------------|
---------------------------------|----------------------------------|
------------------------------5--|----------------------------------|
--3-3-3-3-4-4-4-4-7-7-6-6-7-7----|--3-3-3-3-4-4-4-4-2-2-5-5-1-1-4-4-|


                                                                     
---------------------------------|----------------------------------|
---------------------------------|----------------------------------|
------------------------------5--|------------------3-3-3-3-3-3-3-3-|
--3-3-3-3-4-4-4-4-7-7-6-6-7-7----|--0-0-0-0-4-4-4-4-----------------|


                                                                      
----------------------------------|----------------------------------|
--2-2-2-2---------0-0-0-0---------|----------------------------------|
----------3-3-3-3---------1-1-1-1-|------------------3-3-3-3-3-3-3-3-|
----------------------------------|--0-0-0-0-4-4-4-4-----------------|


                                                                      
----------------------------------|----------------------------------|
--2-2-2-2---------0-0-0-0---------|----------------------------------|
----------3-3-3-3---------1-1-1-1-|------------------3-3-3-3-3-3-3-3-|
----------------------------------|--0-0-0-0-4-4-4-4-----------------|


                                                                      
----------------------------------|----------------------------------|
--2-2-2-2---------0-0-0-0---------|----------------------------------|
----------3-3-3-3---------1-1-1-1-|------------------3-3-3-3-3-3-3-3-|
----------------------------------|--0-0-0-0-4-4-4-4-----------------|


                                                                      
----------------------------------|----------------------------------|
--2-2-2-2---------0-0-0-0---------|----------------------------------|
----------3-3-3-3---------1-1-1-1-|------------------3-3-3-3-3-3-3-3-|
----------------------------------|--0-0-0-0-4-4-4-4-----------------|


                                                            
----------------------------------|------------------------|
--2-2-2-2---------0-0-0-0---------|------------------------|
----------3-3-3-3---------1-1-1-1-|------------------------|
----------------------------------|--2---2---3--2---2---3--|


                                                                              
------------------------|--------------------------|-------------------------|
------------------------|--------------------------|-------------------------|
------------------------|--------------------------|-------------------------|
--2---2---3--6--6--6----|--2---2-2--3--2---2-2--3--|--2---2-2--3--6--6--6----|


                                                                                
--------------------------|-------------------------|--------------------------|
--------------------------|-------------------------|--------------------------|
--------------------------|-------------------------|--------------------------|
--2---2-2--3--2---2-2--3--|--2---2-2--3--6--6--6----|--2---2-2--3--2---2-2--3--|


                                                                       
-------------------------|------------------------|-------------------|
-------------------------|------------------------|-------------------|
-------------------------|------------------------|-------------------|
--2---2-2--3--6--6--6----|--2---2---3--2---2---3--|--0----------------|


                    
------------------||
------------------||
------------------||
------------------||





Comments


Popular Dark Throne tabs & chords
In The Shadows Of The Horns Bass Tabs
Unholy Blackmetal Bass Tabs
A Blaze In The Northern Sky Tabs
Across The Vacuum Tabs
Cromlech Tabs
Gather For Attack On The Pearly Gates Tabs
Skald Av Satans Sol Tabs
The Claws Of Time Tabs
Too Old Too Cold Tabs
Transylvanian Hunger Tabs


Song lyrics



↑ Back to top | Tablatures and chords are parodies/interpretations of the original songs. You may use it for private study, scholarship, research or language learning purposes only
© 2014 AZChords.com Contact us | Privacy policy | DMCA | Add/correct tabs | Request tabs | Top 50 tabs