» » »

Blackwinged Tabs (ver.1)

Artists:  A B C D E F G H I J K L M N O P Q R S T U V W X Y Z # 

Blackwinged Tabs (ver.1)

Dark Throne
Rating:
0/5 (0 votes)

Hard to play? Try these video lessons and learn fast.
                For questions,comment's,corrections's, or any other thing
    For correct rhythm on this song I suggest that you listen to the
   record because I don't now how many times each note is hit.
Tablature Notation:
x  - palm mute                  /  - slide up to
\  - slide down to              ~  - vibrato
h  - hammer on                  b  - bend
p  - pull off                   Suffixes for bend
ph - pinch harmonic             f - full bend    h - half bend
*  - see comment                r - release      t - tap bend
X  - percussion mute            ~ - vibrato bend
@  - slight palm mute           () - ghost note, sustained note
 Tuning: Regular
      (E,A,D,G,B,E,)
                         Im just writing the only strings that are
                         necessary for the tab.
 Riff 1A
 G|----------------------------------------------------------|   Repeat this for
 D|--2-2-2-2-2-2--5-5-5-5-5--7-7-7-7-7-7-7-7-7--5-5-5-5-5----|   several times
 A|--2-2-2-2-2-2--5-5-5-5-5--7-7-7-7-7-7-7-7-7--5-5-5-5-5----|
 E|--0-0-0-0-0-0--3-3-3-3-3--5-5-5-5-5-5-5-5-5--3-3-3-3-3----|

                            (The urge so strong)
 G|--------------------------------------------------------------|
 D|--2-2-2-2-2-2--5-5-5-5-5--7-7-7-7-7-7-7-7-7--5-5-5-5-5--2-2-2-|
 A|--2-2-2-2-2-2--5-5-5-5-5--7-7-7-7-7-7-7-7-7--5-5-5-5-5--2-2-2-|
 E|--0-0-0-0-0-0--3-3-3-3-3--5-5-5-5-5-5-5-5-5--3-3-3-3-3--0-0-0-|

 Riff 1B
 G|------------------------------------------|
 D|--2-2-2---5-5-5-5--2-2-2--8-8-8-8--7-7-7--|
 A|--2-2-2---5-5-5-5--2-2-2--8-8-8-8--7-7-7--|
 E|--0-0-0-0-3-3-3-3--0-0-0--6-6-6-6--5-5-5--|
      (Till you see the devil clear)
 G|----------------------------------------------|
 D|--2-2-2---5-5-5-5--2-2-2--7-7-7-7-7--6-6-6-6--|
 A|--2-2-2---5-5-5-5--2-2-2--7-7-7-7-7--6-6-6-6--|
 E|--0-0-0-0-3-3-3-3--0-0-0--5-5-5-5-5--4-4-4-4--|
 Riff 1C
 G|---------------------------------------|
 D|--2-2--3-3-3-3---2---2-2-2--10-10-10---|
 A|--2-2--3-3-3-3---2---2-2-2--10-10-10---|
 E|--0-0--1-1-1-1---0---0-0-0--8--8--8----|

     (Evil wings bring torture)
 G|------------------------------------|
 D|--2-2--3-3-3-3---2---2-2-2--8-8-8---|
 A|--2-2--3-3-3-3---2---2-2-2--8-8-8---|
 E|--0-0--1-1-1-1---0---0-0-0--6-6-6---|
 Riff 2A
 G|----------------------------------------------|
 D|--2----9/7\9--------2-2-2-2-2---5-5-5--4-4-4--|
 A|--2----7/5\7--------2-2-2-2-2---5-5-5--4-4-4--|
 E|--0-------------0---0-0-0-0-0---3-3-3--2-2-2--|
   (It's glowing for the black)
     Then play riff 1B
     and Riff 1c.
            
Hard to play? Try these video lessons and learn fast. | Correct




comments powered by Disqus
↑ Back to top | Tablatures and chords are parodies/interpretations of the original songs. You may use it for private study, scholarship, research or language learning purposes only