» » »

Atomic Coming Tabs (ver.1)

Artists:  A B C D E F G H I J K L M N O P Q R S T U V W X Y Z # 

Atomic Coming Tabs (ver.1)

Dark Throne
Rating:
0/5 (0 votes)

Hard to play? Try these video lessons and learn fast.
                
Copyright (c) peaceville
Version 1.0 - 17.7.2006


.  - palm mute           /  - slide up to
\  - slide down to       ~  - vibrato
h  - hammer on           b  - Bend
p  - pull off            Suffixes for bend
t  - tap                 f  - full bend    h - half bend
ph - pinched harmonic    q  - quarter bend t - tap bend
*  - see comment         ^  - Hold bend    r release bend
x  - Stuccatto           ~  - vibrato bend
,  - slight palm mute    () - ghost note, sustained note
"  - tremolo note        <> - Trill

Tuning E A D G B E


 Intro
|----------------------------|
|----------------------------|
|----------------------------|
|-6-6---2-4-5--6-6---2-4-5---|
|-4-4---0-2-3--4-4---0-2-3---|
|----------------------------|

 Riff 1 x4
|---------------------------------------|
|---------------------------------------|
|---------------------------------------|
|-6"---2-4-5-------6"---2-4-5-----------|
|-4"---0-2-3--4"---4"---0-2-3--4"-------|
|-------------2"---------------2"---1~--|

 Riff 2 x4
|------------------------------------------------|
|------------------------------------------------|
|------------------------------------------------|
|------------------------------------------------|
|-2------3-3--2-------3-3--4-----5-4-4--5--7--6--|
|-0------1-1--0-------1-1--2-----3-2-2--3--5--4--|


 Riff 1 x2
 Riff 2 x4


 Riff 3 x6                          1,3,5th  2,4,6th time
|-----------------------------------|------|------|
|-----------------------------------|------|------|
|-----------------------------------|------|------|
|-----------------------------------|------|-8-8--|
|-7h8-7-10---------7h8-7-10---------|-8-8--|-6-6--|
|----------0"---------------0"------|-6-6--|------|

 Riff 4 x2
|------------------------|
|------------------------|
|------------------------|
|------------------------|
|-8-7-6-3-------6-5-5-2--|
|-6-5-4-1-------4-3-3-0--|


 Riff 3 x4
 Riff 4 x4


 Fill x1
|----------------------------------------|
|----------------------------------------|
|----------------------------------------|
|-6-6---2-4-5-------6"---2-4-5-----------|
|-4-4---0-2-3--4"---4"---0-2-3--4"-------|
|--------------2"---------------2"---1~--|


 Riff 1 x3

 END
|------|
|------|
|------|
|------|
|-2----|
|-0----|
            
Hard to play? Try these video lessons and learn fast. | Correct




comments powered by Disqus
↑ Back to top | Tablatures and chords are parodies/interpretations of the original songs. You may use it for private study, scholarship, research or language learning purposes only