» » »

A Blaze In The Northern Sky Tabs (ver.1)

Artists:  A B C D E F G H I J K L M N O P Q R S T U V W X Y Z # 

A Blaze In The Northern Sky Tabs (ver.1)

Dark Throne
Rating:
0/5 (0 votes)

Hard to play? Try these video lessons and learn fast.
                 

Band   Darkthrone 


Copyright (c)  Peaceville Records
Version 1.0 -  13/12/2007

Tuning E A D G B E


. - palm mute / - slide up to
 - slide down to ~ - vibrato
h - hammer on p - pull off
, - slight palm mute () - ghost note, sustained note
" " tremolo note <> - Trill

Suffixes for bend
f - full bend h - half bend
ph - pinched harmonic q - quarter bend
t - tap bend * - see comment
^ - Hold bend r - release bend
x – Staccato ~ - vibrato bend
. - palm mute / - slide up to
 - slide down to ~ - vibrato
h - hammer on p - pull off
, - slight palm mute () - ghost note, sustained note
" " tremolo note <> - Trill


Riff 1 - Intro                                         
|----------------------------------------------------|
|----------------------------------------------------| 
|----------------------------------3"----------------| 
|---4"---------3"-------2"---------1"----------------|  
|---2"---------1"-------0"---------------------------|
|----------------------------------------------------|

Riff 1b 
|--------------------------------------------|
|--------------------------------------------|
|--------------------------------------------|
|---------------------------------4"---------|  
|--6"----5"-------4"------2"------2"---------|
|--4"----3"-------2"------0"-----------------|

Riff 2
|------------------------------------------------|
|------------------------------------------------| 
|------------------------------------------------| 
|------------------------------------------------|  
|--6-6-6-6-7-6-6-6-6-7-6-6-6-6-7-4 4-7-6---------|
|--4-4-4-4-5-4-4-4-4-5-4-4-4-4-5-6-6-5-4---------|

Riff 4
|------------------------------------------------------|
|------------------------------------------------------| 
|------------------------------------------------------| 
|------------------------------------------------------|  
|--4-4-4-4-4-5-4-4-4-4-6-6-6-6-6-7-7-7-7-7-------------|
|--2-2-2-2-2-3-2-2-2-2-4-4-4-4-4-5-5-5-5-5-------------|

Riff 5 - Fill 1 
|--------------------------------------|
|--------------------------------------| 
|--------------------------------------| 
|--------------------------------------|  
|--7---7-----6-------------------------|
|--5---5-----4-------------------------|

Riff 6
|------------------------------------------------------|
-------------------------------------------------------| 
|------------------------------------------------------| 
|------------------------------------------------------|  
|-6-6-6-6-6-5-5-5-5-7-7-7-7----------------------------|
|-4-4-4-4-4-3-3-3-3-5-5-5-5----------------------------|

Riff 7 - Fill 2  
|-------------------------------------------------|
|-------------------------------------------------| 
|--------------------------------------------1----| 
|---------------------------------------1---------|  
|-----------------------0---1--2---0--------------|
|--0---1-1-2---2--0-------------------------------|

Riff 8 - Fill 3   
|----------------------------------|
|----------------------------------| 
|-------------3--------------------| 
|---5---4h5------------------------|  
|----------------------------------|
|----------------------------------|

Riff 9 
|-------------------------------------------------------------------|
|------------------------------------------------0--1--2--3---------| 
|-----4-3----0--1---3-----------------------------------------------| 
|-----------------------2-------------------------------------------| 
|-2----------------------------2---3----5-----8---------------------|
|-0----------------------------0---1----3-----6---------------------|

Play Riff 7
Play Riff 3
Play Riff 4

Riff 10 - End
|------------------------------------------|
|------------------------------------------| 
|------------------------------------------| 
|-4---3---2-----9----8---------------------|  
|-2---1---0-----7----6---5---4--3---2------|
|------------------------3---2--1---0------|
            
Hard to play? Try these video lessons and learn fast. | Correct




comments powered by Disqus
↑ Back to top | Tablatures and chords are parodies/interpretations of the original songs. You may use it for private study, scholarship, research or language learning purposes only