» » »

Lean Tabs (ver.1)

Artists:  A B C D E F G H I J K L M N O P Q R S T U V W X Y Z # 

Lean Tabs (ver.1)

Dark New Day
Rating:
5/5 (1 vote)

Hard to play? Try these video lessons and learn fast.
                ----------------------------------------------------------------------------
----------------------------------------------------------------------------

Tuning:Bb,F,Bb,Eb,G,C

Intro/Verse (Part1)   x6
|--------------------------------------------------------------------------|
|--------------------------------------------------------------------------|
|--------------------------------------------------------------------------|
|---------------------------1-1--6--1-1--4---------------------------------|
|----------6--0-0-000-2-222-1-1--6--1-1--4---------------------------------|
|-1-3-3--1------------------1-1--6--1-1--4---------------------------------|
PM                          . .     . .

(Part 2)    x4
|--------------------------------------------------------------------------|
|--------------------------------------------------------------------------|
|--------------------------------------------------------------------------|
|-1--3-3--1-3--3-1-3--3-1-3--3-3---3-3-1-1---------------------------------|
|-1--3-3--1-3--3-1-3--3-1-3--3-3---3-3-1-1---------------------------------|
|-1--3-3--1-3--3-1-3--3-1-3--3-3---3-3-1-1---------------------------------|
PM                           . .   . . . .

Chorus      x2
|--------------------------------------------------------------------------|
|----------------------------88-8-88888-------88-8-88888-------------------|
|----------------------3---------------------------------------------------|
|-3------6------1------3-----55-5-55555-------55-5-55555-------------------|
|-3------6------1------1---------------------------------------------------|
|-3------6------1-----------------------1----------------------------------|

Intro/Verse Part1 x6
Part2 x2
then
|-------------------------------------------------|------------------------|
|-------------------------------------------------|------------------------|
|-------------------------------------------------|------------------------|
|-1--3-3--1-3--3-1-3-111-3-1-3-111-3-1-3--111-----|------------------------|
|-1--3-3--1-3--3-1-3-----3-1-3-----3-1-3--111-----|----x2------------------|
|-1--3-3--1-3--3-1-3-----3-1-3-----3-1-3--111-----|------------------------|
PM                                        ...

Chorus x4

Bridge (Part1)      x2
|--------------------------------------------------------------------------|
|--------------------------------------------------------------------------|
|--------------------------------------------------------------------------|
|---------------4----------4----------4--4---------------------------------|
|--------------------------------------------------------------------------|
|-1--3-3--3-1-3---11-3-1-3---11-3-1-3-------1-1--1-------------------------|
PM.  . .  . . .   .. . .     .. . .         . .  .

(Part2)        x2
|--------------------------------------------------------------------------|
|--------------------------------------------------------------------------|
|--------------------------------------------------------------------------|
|-1--3-3--3-1-3-4-11-3-1-3-4-11-3-1-3-4--4--1-1--1-------------------------|
|-1--3-3--3-1-3---11-3-1-3---11-3-1-3-------1-1--1-------------------------|
|-1--3-3--3-1-3-4-11-3-1-3-4-11-3-1-3-4--4--1-1--1-------------------------|
PM.       . .     .. . .     .. . .         . .  .

|--------------------------------------------------------------------------|
|--------------------------------------------------------------------------|
|--------------------------------------------------------------------------|
|-1--3-3--3-1-3-4-----------4-----------4--4--1-1--1-----------------------|
|-1--3-3--3-1-3-------------------------------1-1--1-----------------------|
|-1--3-3--3-1-3-4-11-3331-3-4-11-3331-3-4--4--1-1--1-----------------------|
PM.       . .     .. ....     .. ....         . .  .

End of bridge
|--------------------------------------------------------------------------|
|-88-8-88888-------88-8-88888----------------------------------------------|
|--------------------------------------------------------------------------|
|-55-5-55555-------55-5-55555----------------------------------------------|
|--------------------------------------------------------------------------|
|------------1-------------------------------------------------------------|

Chorus x4
Intro/Verse (Part1) x2
Bridge (Part2) x2

| /  slide up
| \  slide down
| h  hammer-on
| p  pull-off
| ~  vibrato
| *  harmonic
| PM palm mute
============================================================================
            
Hard to play? Try these video lessons and learn fast. | Correct




comments powered by Disqus
↑ Back to top | Tablatures and chords are parodies/interpretations of the original songs. You may use it for private study, scholarship, research or language learning purposes only