>
 >
Heal In Time

Heal In Time Guitar Tabs

Dark New Day - Heal In Time chords, tabs, tablatures, lyrics

Guitar lessons | Add/correct | Request | Top 50 tabs Artists:  A B C D E F G H I J K L M N O P Q R S T U V W X Y Z 0-9

Heal In Time Guitar Tabs – Dark New Day

CD, Sheet music, Poster

Do you like Heal In Time? Share with your friends now
Tabs
------------------------------------------------------------------------------------------------
------------------------------------------------------------------------------------------------


Tuning: Bb F Bb Eb Ab Bb


Intro, Verse:
------------------------------------------------------------------------------------------------|
------------------------------------------------------------------------------------------------|
--------------------------10101010109--9-9-9-9-9-9-9-8--8-8-8-8-8-8-8-7--7-7--------------------|
--------------------------x-x-x-x-x-x--x-x-x-x-x-x-x-x--x-x-x-x-x-x-x-x--x-x--------------------|
--------------------------8-8-8-8-8/7--7-7-7-7-7-7-7/6--6-6-6-6-6-6-6/5--5-5--------------------|
--5/7--7-7-7-7-7-7/6-6-6------------------------------------------------------------------------|

------------------------------------------------------------------------------------------------|
------------------------------------------------------------------------------------------------|
------------------------------------------------------------------------------------------------|
------------------------------------------------------------------------------------------------|
------------------------------------------------------------------------------------------------|
--5/7-7-7-7-7-7-7/6-6-6-6/3-3-3-3-3/2-2-2-2-2-2-2/1-1-1-1-1-1/0-0-0-0-0-0-----------------------|

Pre-Chorus: w/natural harmonic
------------------------------------------------------------------------------------------------|
------------------------------------------------------------------------------------------------|
------------------------------------------------------------------------------------------------|
------------------------------------------------------------------------------------------------|
---------------------------------x-x------------------------------------------------------------|
--0------3-------0---------3-----x-x------------------------------------------------------------|

Chorus:
------------------------------------------------------------------------------------------------|
------------------------------------------------------------------------------------------------|
---------------12--12--1111-1111------------------------------------------15--14--10------------|
---------------x---x---x-x--x-x----------10--1010-10-1010-----------------x---x---x-------------|
--0--0-0--0-0--10--10--9-9--9-9----7--7--7---7-7--7--7-7----3--3-3--3-3---13--12--8-------------|
--0--0-0--0-0----------------------7--7--7---7-7--7--7-7----3--3-3--3-3-------------------------|

------------------------------------------------------------------------------------------------|
------------------------------------------------------------------------------------------------|
------------------------------------------------------------------------------------------------|
-------7--7--8-8--7-7--7-7----------------------------------------------------------------------|
--5--5-5--5--5-5--5-5--5-5----------------------------------------------------------------------|
--5--5-5--5--5-5--5-5--5-5----------------------------------------------------------------------|

Solo:
Gtr1
------------------------------------------------------------------------------------------------|
------------------------------------------------------------------------------------------------|
--12-11-11-11-11-11-11--12-11-11-11-11-11-11--12-11-11-11-11-11-11--12-11-11-11-11-11-11--14----|
------------------------------------------------------------------------------------------------|
------------------------------------------------------------------------------------------------|
------------------------------------------------------------------------------------------------|

---------------------|--------------------------------------------------------------------------|
--11-11-11-15-11-11--|--------------------------------------------------------------------------|
---------------------|--------------------------------------------------------------------------|
---------------------|----5--5-5-5-5-5-5---8--8-8-8-8-8-8---------------------------------------|
---------------------|----3--3-3-3-3-3-3---6--6-6-6-6-6-6---------------------------------------|
---------------------|--------------------------------------------------------------------------|

Gtr2
------------------------|
------------------------|
------------------------|
------------------------|
----------------3-------|
--0--3--0----0-----3----|

Gtr1
-----------0-----0----------0----0----------0----0-----------12----12-----12----------12--------|
------------------------------------------------------------------------------------------------|
--12/14/12----11---12/14/12---11---12/14/12---11------14^(16)---14----14------14^(16)-----------|
------------------------------------------------------------------------------------------------|
------------------------------------------------------------------------------------------------|
------------------------------------------------------------------------------------------------|

Gtr2
------------------------------------------------------------------------------------------------|
------------------------------------------------------------------------------------------------|
------------------------------------------------------------------------------------------------|
------------------------------55555555555-88888888888-------------------------------------------|
--0--0--3-0--0-0--0--3--0-----33333333333-66666666666-------------------------------------------|
--0--0--3-0--0-0--0--3--0-----------------------------------------------------------------------|

Gtr1
-----12-----12-----------0-----0----------0----0----------0----0---------12----12-----12--------|
------------------------------------------------------------------------------------------------|
--14----14------12/14/12----11---12/14/12---11---12/14/12---11----14^(16)---14----14------------|
------------------------------------------------------------------------------------------------|
------------------------------------------------------------------------------------------------|
------------------------------------------------------------------------------------------------|


---------12----12---12--------------------------------------------0--0--0---0--0--0----0--0--0--|
-----------------------------15^(17)/12 14~--12-15^(17)/12-14~----14/12-12--12/10-10---10/9--9--|
--14^(16)---14---14-----------------------------------------------------------------------------|
------------------------------------------------------------------------------------------------|
------------------------------------------------------------------------------------------------|
------------------------------------------------------------------------------------------------|

---0-0-0--0-0--0-0--------------------------------------0--0--0---0--0--0---0--0-0--0-0-0-------|
---9/7-7--7/9--9/12-------15^(17)/12-14~---17^(19)-17~--14/12-12--12/10-10--10/9-9--9/7-7-------|
------------------------------------------------------------------------------------------------|
------------------------------------------------------------------------------------------------|
------------------------------------------------------------------------------------------------|
------------------------------------------------------------------------------------------------|

---0-0-0--0--0--0---0--0-0--0-0-0-0-------------------------------------------------------------|
---7/9-9--12/10-10--10/9-9--9/7-7-7-------------------------------------------------------------|
------------------------------------------------------------------------------------------------|
------------------------------------------------------------------------------------------------|
-----------------------------------------0-0-0--------------------------------------------------|
-----------------------------------------0-0-0--------------------------------------------------|
                            P.M.





Comments


Popular Dark New Day tabs & chords
Breakdown Tabs
Breakdown Acoustic Intro Tabs
Brother Tabs
Fill Me Again Tabs
Follow The Sun Down Tabs
Free Tabs
Lean Tabs
Pieces Tabs
Storm Tabs
Storm 1 Tabs


Song lyrics



↑ Back to top | Tablatures and chords are parodies/interpretations of the original songs. You may use it for private study, scholarship, research or language learning purposes only
© 2014 AZChords.com Contact us | Privacy policy | DMCA | Add/correct tabs | Request tabs | Top 50 tabs