» » »

Dark New Day, Fill Me Again Tabs (ver.1)

Artists:  A B C D E F G H I J K L M N O P Q R S T U V W X Y Z # 

Fill Me Again Tabs (ver.1)

Dark New Day Tabs
Rating:
4/5 (2 votes)
Hard to play? Try these video lessons and learn fast.
                ------------------------------------------------------------------------------------------------
------------------------------------------------------------------------------------------------



Tuning: B Gb B E Ab Db


Intro:
------------------------------------------------------------------------------------------------|
-----------------------------------7-7---7-7----------------------------------------------------|
-------------------5-5--5-5-5-5----x-x---x-x----------------------------------------------------|
-------------------x-x--x-x-x-x----4-4---4-4-----3--3---3-3-------------------------------------|
-------------------3-3--3-3-3-3----0-0---0-0-----3--3---3-3-------------------------------------|
----5/7--7~--5/7~------------------0-0---0-0-----3--3---3-3-------------------------------------|

Verse:
------------------------------------------------------------------------------------------------|
------------------------------------------------------------------------------------------------|
------------------------------------------------------------------------------------------------|
-----------7-----7-----------5------5-----------5-----5-----------7-----7------------7------7---|
----------------------------------------------------------3-3-3-3---3-3-------------------------|
---7-7-7-7---7-7-----8-8-8-8----8-8-----3-3-3-3---3-3-----------------------7-7-7-7-----7-7-----|

------------------------------------------------------------------------------------------------|
------------------------------------------------------------------------------------------------|
------------------------------------------------------------------------------------------------|
-----------5------5-----------3-----3-----------------------------------------------------------|
------------------------------------------------3------3----------------------------------------|
---8-8-8-8----8-8-----0-0-0-0---0-0-----0-0-0-0----0-0------------------------------------------|

------------------------------------------------------------------------------------------------|
------------------------------------------------------------------------------------------------|
------------------------------------------------------------------------------------------------|
-----------7-----7-----------5------5-----------5-----5-----------7-----7------------7------7---|
----------------------------------------------------------3-3-3-3---3-3-------------------------|
---7-7-7-7---7-7-----8-8-8-8----8-8-----3-3-3-3---3-3-----------------------7-7-7-7-----7-7-----|

------------------------------------------------------------------------------------------------|
------------------------------------------------------------------------------------------------|
------------------------------------------------5-5-5-5-----------------------------------------|
-----------5------5-----------3-----3-----------x-x-x-x-----------------------------------------|
------------------------------------------------3-3-3-3-----------------------------------------|
---8-8-8-8----8-8-----0-0-0-0---0-0-----0-0-0-0-------------------------------------------------|

Chorus:
Gtr 1
------------------------------------------------------------------------------------------------|
------------------------------------------------------------------------------------------------|
-----------------------------------------------------5-5-5-5-5-5-5-5----------------------------|
---7-7-7-7-7-7-7-7-7--7--8-8-8-8----3-3-3-3-3-3-3-3--x-x-x-x-x-x-x-x----------------------------|
---7-7-7-7-7-7-7-7-7--7--8-8-8-8----3-3-3-3-3-3-3-3--3-3-3-3-3-3-3-3----------------------------|
---7-7-7-7-7-7-7-7-7--7--8-8-8-8----3-3-3-3-3-3-3-3---------------------------------------------|

Gtr 2
------------------------------------------------------------------------------------------------|
------------------------------------------------------------------------------------------------|
---9-9-9-9-9-9-9-9-9----10101010----------------------------------------------------------------|
---x-x-x-x-x-x-x-x-x----x-x-x-x-----------------------------------------------------------------|
---7-7-7-7-7-7-7-7-7----8-8-8-8-----------------------------------------------------------------|
------------------------------------------------------------------------------------------------|

Gtr 1
------------------------------------------------------------------------------------------------|
------------------------------------------------------------------------------------------------|
------------------------------------------------------------------------------------------------|
---7-7-7-7-7-7-7-7-7--7--8-8-8-8----0-0-0-0-0-0-0-0-0-0-0-0-0-0-0-0-0-0-0-----------------------|
---7-7-7-7-7-7-7-7-7--7--8-8-8-8----0-0-0-0-0-0-0-0-0-0-0-0-0-0-0-0-0-0-0-----------------------|
---7-7-7-7-7-7-7-7-7--7--8-8-8-8----0-0-0-0-0-0-0-0-0-0-0-0-0-0-0-0-0-0-0-----------------------|

Gtr 2
------------------------------------------------------------------------------------------------|
------------------------------------------------------------------------------------------------|
---9-9-9-9-9-9-9-9-9----10101010----10101010101010101010-9-9-9-9-7-7-7-7------------------------|
---x-x-x-x-x-x-x-x-x----x-x-x-x-----x-x-x-x-x-x-x-x-x-x--x-x-x-x-x-x-x-x------------------------|
---7-7-7-7-7-7-7-7-7----8-8-8-8-----8-8-8-8-8-8-8-8-8-8--7-7-7-7-5-5-5-5------------------------|
------------------------------------------------------------------------------------------------|

Gtr 3
---17---17-17---15-------|
---x----x--x----x--------|
---14---14-14---12-------|
-------------------------|
-------------------------|
-------------------------|

Gtr 1
------------------------------------------------------------------------------------------------|
------------------------------------------------------------------------------------------------|
------------------------------------------------------------------------------------------------|
---3--3-3--3--3-3--3--3-3---0--0-0--0--0-0--0--0-0----------------------------------------------|
---3--3-3--3--3-3--3--3-3---0--0-0--0--0-0--0--0-0----------------------------------------------|
---3--3-3--3--3-3--3--3-3---0--0-0--0--0-0--0--0-0----------------------------------------------|


Gtr 2
------------------------------------------------------------------------------------------------|
------------------------------------------------------------------------------------------------|
---------------------------10101010101010101010-9-9-9-9-7-7-7-7---------------------------------|
---3--3-3--3--3-3--3--3-3--x-x-x-x-x-x-x-x-x-x--x-x-x-x-x-x-x-x---------------------------------|
---3--3-3--3--3-3--3--3-3--8-8-8-8-8-8-8-8-8-8--7-7-7-7-5-5-5-5---------------------------------|
---3--3-3--3--3-3--3--3-3-----------------------------------------------------------------------|

Gtr 1 & 2
------------------------------------------------------------------------------------------------|
------------------------------------------------------------------------------------------------|
------------------------------------------------------------------------------------------------|
---3--3-3--3--3-3--3--3-3---3/5-5-5-5-5-5-5-5-5-5-5-5-------------------------------------------|
---3--3-3--3--3-3--3--3-3---3/5-5-5-5-5-5-5-5-5-5-5-5-------------------------------------------|
---3--3-3--3--3-3--3--3-3---3/5-5-5-5-5-5-5-5-5-5-5-5-------------------------------------------|

Bridge:
Gtr 1                                Gtr 2
-----------------------------------------------|------------------------------------------------|
-----------------------------------------------|------------5-----------------------------------|
-----------------------------------------------|---9--------9^----------------------------------|
-----------------------------------------------|------------------------------------------------|
-----------------------------------------------|------------------------------------------------|
---3/2-0---3/2-0---3/2-0---3/2-0---3/2-0-0-----|------------------------------------------------|

------------------------------------------------------------------------------------------------|
------------------------------------------------------------------------------------------------|
------------------------------------------------------------------------------------------------|
------------------------------------------------------------------------------------------------|
---3/2-0--3/2-0--3/2-0--3/2-0--3/2-0--0-0----3/2-0--3/2-0--3/2-0---33333333/555555----77777777--|
---3/2-0--3/2-0--3/2-0--3/2-0--3/2-0--0-0----3/2-0--3/2-0--3/2-0---33333333/555555----77777777--|
                          P.M.
            

comments powered by Disqus
↑ Back to top | Dark New Day Tabs for Fill Me Again. Lyrics for acoustic guitar and electric guitar. Tablatures and chords are parodies/interpretations of the original songs. You may use it for private study, scholarship, research or language learning purposes only