» » »

Darkness, Love On The Rocks With No Ice Tabs (ver.3)

Artists:  A B C D E F G H I J K L M N O P Q R S T U V W X Y Z # 

Love On The Rocks With No Ice Tabs (ver.3)

Darkness Tabs
Rating:
0/5 (0 votes)
Love On The Rocks With No Ice lessons Tabs too difficult? Try these video lessons and learn fast
                LOVE ON THE ROCKS WITH NO ICE
                           As recorded by The Darkness
                    (From the 2002 Album PERMISSION TO LAND)

Words and Music by Justin Hawkins, Daniel Hawkins, Frankie Poullain & Ed Graham

Gtr I (E A D G B E) - 'Clean'
Gtr II (E A D G B E) - 'Distortion'
Gtr III (E A D G B E) - 'Distortion'

 Intro
  Q=86
  N.C.
 4/4
  Gtr I
  |-3-|   |-3-|            |-3-|   |-3-|            |-3-|   |-3-|
  S S S E S S S E E Q  E   S S S E S S S E E Q  E   S S S E S S S E E Q  E
|------------------------|------------------------|-------------------------|
|------------------------|-------0----------------|-------------------------|
|-------0----------------|------------------------|-------0-----------------|
|------------------------|-0h2h4---5p4p2p0-2------|-------------------------|
|-0h2h4---5p4p2p0-2------|-------------------0--0-|-0h2h4---5p4p2p0-2-------|
|-------------------0--0-|------------------------|-------------------0--0--|


                               E5  D5E5  Bb5
                               Gtrs II, III
  S S S S Q  S S E E   +E      E E E E E E S E     S
|-0----------0-------------||------------------------|
|---0---0------0-----------||o-----3-----------------|
|-----3---3------3-3b4-(3)-||------2-----------------|
|--------------------------||--2-2-0-2---3-----------|
|--------------------------||o-2-2-0-2---1-0---------|
|--------------------------||--0-0---0-------3b3.5-0-|


  A5            Bb5
  E E E     E E E S E     S
|----------------------------||
|---------------------------o||
|----------------------------||
|-2-2-------2---3------------||
|-0-0-------0---1-0---------o||
|-----3b3.5---------3b3.5-0--||


 Verse
  E5
  W          S S E +H     S S S S   Q  H.        S S E +Q   +E  E E E
|----------|----------------------|----0-------|----------------0-------|
|----------|----------------------|----0-------|------------------0-----|
|----------|-----2-(2)------------|----4-------|-----7-(7)--(7)-----7---|
|----------|------------------0h2-|------------|------------------------|
|-2--------|-2s4----------4s2-----|------------|-7s9--------------------|
|-0--------|----------------------|-0----------|------------------------|


  E5  D5E5  Bb5           A5            Bb5
  E E E E E E S E     S   E E E     E E E S E     S
|-----------------------|---------------------------|
|-----3-----------------|---------------------------|
|-----2-----------------|---------------------------|
|-2-2-0-2---3-----------|-2-2-------2---3-----------|
|-2-2-0-2---1-0---------|-0-0-------0---1-0---------|
|-0-0---0-------3b3.5-0-|-----3b3.5---------3b3.5-0-|


  E5  D5E5  Bb5           A5            G5
  E E E E E E S E     S   E E E     E E E S S S S
|-----------------------|---------------3-3-3-3-3--||
|-----3-----------------|---------------3-3-3-3-3--||
|-----2-----------------|---------------0-0-0-0-0--||
|-2-2-0-2---3-----------|-2-2-------2---0-0-0-0-0--||
|-2-2-0-2---1-0---------|-0-0-------0--------------||
|-0-0---0-------3b3.5-0-|-----3b3.5-----3----------||


 Pre-Chorus
  $
  Dsus2
  Q  E S S Q  E E   E E E S S E E   S S S S
|-0--0-0-0-0--0-0-|-0-0-0-0-0-0-------------|
|-3--3-3-3-3--3-3-|-3-3-3-3-3-3-------------|
|-2--2-2-2-2--2-2-|-2-2-2-2-2-2-2b3-2p0-----|
|-0--0-0-0-0--0-0-|-0-0-0-0-0-0---------2p0-|
|-0--0-0-0-0--0-0-|-0-0-0-0-0-0-------------|
|-----------------|-------------------------|


  Em                          D5
  Q  E. S Q  E. S   Q  E. S E E E E
|----0-------0----|----0--------------|
|----0-------0----|----0------3-3-3---|
|----0--0----0--0-|----0--0---2-2-2---|
|-----------------|-----------0-0-0---|
|-----------------|-------------------|
|-0-------0-------|-0-------0---------|


  D/G                                        D             A5
  E E E. S E E E E   E E E S S S S E E S S   E E E E E E E E
|-----2--------2---|-----2-----------2-----|-2-2-2-2-0--------|
|-----3--------3---|-----3-----------3-----|-3-3-3-3---3------|
|-----2--------2---|-----2-----------2-----|-2-2-2-2-----0----|
|-----0--0-----0-0-|-----0-0-0-------0-----|-0-0-0-0-------2--|
|------------------|-----------------------|-0-0-0-0-------0--|
|-3-3------3-3---3-|-3-3-------3-3-3---3-3-|------------------|


       N.C.
  +Q    a  E   E   S  S   E   +Q      a  E   E   S  S   E   +Q    Q
|----------------------------------|---------------------------------|
|-------------12---------14--(14)--|--------14---------17--(17)\-----|
|----------------------------------|---------------------------------|
|-(2)--10s12-(12)-12s14-(14)-(14)--|-12s14-(14)-14s17-(17)-(17)------|
|-(0)------------------------------|---------------------------------|
|----------------------------------|---------------------------------|


   Chorus
    D5A5  E5              D5A5  E5
    E E E E E E E     E   E E E E E E E     E
||----------------------|-----------------------|
||o-3-------------------|-3---------------------|
||--2-2-----------------|-2-2-------------------|
||--0-2---2-------------|-0-2---2---------------|
||o---0---2-------------|---0---2---------------|
||--------0---0-3b3.5-0-|-------0---0-3b3.5-0---|


                       1.                    2.
                                                       To Coda
  D5A5  E5              G5    A5              N.C.          A5
                                             2/4           4/4
                                              |-3-| |-3-|
  E E E E E E E     E   E E E E +E  E E E     E E E E E E   W
|---------------------|-3------------------||-------------|-------||
|-3-------------------|-3-----------------o||-------------|-------||
|-2-2-----------------|-0-----2-(2)-2-2-2--||-------------|-2-----||
|-0-2---2-------------|-0-----2-(2)-2-2-2--||-------------|-2-----||
|---0---2-------------|-------0-(0)-0-0-0-o||-------------|-0-----||
|-------0---0-3b3.5-0-|-3-2-3--------------||-3-2-0-3-2-0-|-------||


 Guitar Solo
  E5        D5  E5      Bb5
  Gtr II
  E       E  E  E E     E     S E     S
|---------------------------------------|
|------------3--------------------------|
|------------2--------------------------|
|-2-------2--0--2-------3---------------|
|-2-------2--0--2-------1-----0---------|
|-0-------0-----0---------------3b3.5-0-|
|
| Gtr III
|                 |----6----|
| S   +E.   +Q    S S S S S S Q
|---------------------------------------|
|-2---(2)---(2)-------------------------|
|-2b3r(2)---(2)---2p0---0---------------|
|---------------------4---4p0-2---------|
|---------------------------------------|
|---------------------------------------|


  A5                    Bb5             E5       D5E5       Bb5
  E     E     E     E E E S   E     S   E      E E E E      E S E     S
|-------------------------------------|----------------------------------||
|-------------------------------------|----------3-----------------------||
|-------------------------------------|----------2-----------------------||
|-2-----2-----------2---3-------------|-2------2-0-2--------3------------||
|-0-----0-----------0---1-0-----------|-2------2-0-2--------1-0----------||
|-------------3b3.5-----------3b3.5-0-|-0------0---0------------3b3.5-0--||
|
| |----6----|
| S S S S S S E     E E E Q             S S    E Q   S S    E Q
|-------------------------------------|-3------------3-------------------||
|-----------------------3-5b7---------|---5pb7r5-3-----5pb7r5-3----------||
|-------------0-----2-4---------------|----------------------------------||
|-------0h2h4-------------------------|----------------------------------||
|-0h2h4-------------------------------|----------------------------------||
|-------------------------------------|----------------------------------||


  A5                    Bb5
  E     E     E     E E E S    E       S
|----------------------------------------||
|----------------------------------------||
|----------------------------------------||
|-2-----2-----------2---3----------------||
|-0-----0-----------0---1-0--------------||
|-------------3b3.5------------3b3.5---0-||
|
| |----3----|
| S S S S S S E     E E E S   +S     S S
|-----------------------0----------------||
|-3p0-2p0-----0-----2-3------------------||
|---------2p0-------------2b3r(2)----0---||
|--------------------------------------2-||
|----------------------------------------||
|----------------------------------------||


 Verse
  E5  D5E5     Bb5       A5            Bb5
  Gtrs II, III
  E E E E +E   E S E S   E E E     E E E S E     S
|----------------------|---------------------------|
|----------------------|---------------------------|
|-9-9-7-9-(9)\---------|-2-2-------2---------------|
|-9-9-7-9-(9)\-3-x-0---|-2-2-------2---3-----------|
|-7-7-5-7-(7)\-1-x-----|-0-0-------0---1-0---------|
|------------------3-0-|-----3b3.5---------3b3.5-0-|
|
| W                      W
|----------------------|---------------------------|
|----------------------|---------------------------|
|----------------------|---------------------------|
|----------------------|---------------------------|
|----------------------|---------------------------|
|----------------------|---------------------------|


  E5  D5E5  Bb5           A5            G5          E5  D5E5  Bb5
  E E E E E E S E     S   E E E     E E E S S S S   E E E E E E S E     S
|-----------------------|---------------3-3-3-3-0-|-----------------------|
|-----------------------|---------------3-3-3-3-0-|-----------------------|
|-9-9-7-9---------------|-2-2-------2---0-0-0-0-0-|-9-9-7-9---------------|
|-9-9-7-9---3-----------|-2-2-------2---0-0-0-0-0-|-9-9-7-9---3-----------|
|-7-7-5-7---1-0---------|-0-0-------0-------------|-7-7-5-7---1-0---------|
|---------------3b3.5-0-|-----3b3.5-----3-3-3-3---|---------------3b3.5-0-|


                                                                D.S. al Coda
  A5            Bb5           E5  D5E5  Bb5           A5            G5
  E E E     E E E S E     S   E E E E E E S E     S   E E E     E E E S S S S
|---------------------------|-----------------------|---------------3-3-3-3-0-||
|---------------------------|-----------------------|---------------3-3-3-3-0-||
|-2-2-------2---------------|-9-9-7-9---------------|-2-2-------2---0-0-0-0-0-||
|-2-2-------2---3-----------|-9-9-7-9---3-----------|-2-2-------2---0-0-0-0-0-||
|-0-0-------0---1-0---------|-7-7-5-7---1-0---------|-0-0-------0-------------||
|-----3b3.5---------3b3.5-0-|---------------3b3.5-0-|-----3b3.5-----3-3-3-3---||


 Guitar Solo II
  &
  E5      D5E5        Bb5              A5                               G5
  Gtr III
                                                              |-----3------|
   H           +E.     S  S  S  S  S    E     Q.             +E    E       E     S     +E   S
|---------------------12-------------|--------------------------------------------------------|
|-12----------(12)-------15p12-15p12-|-15b17-15b17==========(15)r-15b17---15b17-15b17r(15)-12-|
|-14b16-------(14)-------------------|--------------------------------------------------------|
|------------------------------------|--------------------------------------------------------|
|------------------------------------|--------------------------------------------------------|
|------------------------------------|--------------------------------------------------------|
|
| Gtr II
|  E    E E E  +E   E     S  S  E       E     E     E     E   E         E        S      E.
|------------------------------------|--------------------------------------------------------|
|------------------------------------|--------------------------------------------------------|
|--9----9-7-9--(9)\------------------|----------------------------------0---------------------|
|--9----9-7-9--(9)\-3----------------|--2-----2-----------2-------------0---------------------|
|--7----7-5-7--(7)\-1p====0----------|--0-----0-----------0-----------------------------------|
|----------------------------3p=0----|--------------3b3.5---------------3--------0------3-----|


  E5       D5   E5         Bb5
   S  E.    +Q     +S    S  E     Q
|--------------------------15b17-15------|
|-15p12----(12)---(12)--12---------------|
|----------------------------------------|
|----------------------------------------|
|----------------------------------------|
|----------------------------------------|
|
|  E     E   E  E  +E       E     S S E
|----------------------------------------|
|----------------------------------------|
|--9-----9---7--9--(9)\------------------|
|--9-----9---7--9--(9)\-----3------------|
|--7-----7---5--7--(7)\-----1p====0------|
|-----------------------------------3p0--|


  A5                                G5
   S  S  S     S  E      E      +E.    S E     S S
|-15p12-------12-----------------------------------|
|-------15b17----15b17--15b17==(15)r==15s0s===10p0-|
|--------------------------------------------------|
|--------------------------------------------------|
|--------------------------------------------------|
|--------------------------------------------------|
|
|  E     E        E      E       E  E    S E.
|--------------------------------------------------|
|--------------------------------------------------|
|-----------------------------------0--------------|
|--2-----2---------------2----------0--------------|
|--0-----0---------------0-------------------------|
|-----------------3b3.5-------------3----0-3-------|


  E5      D5  E5         Bb5                           A5                       G5
  S S S S S S S S  S   S  S     +S   S  S      +S  S    S S  E S      S E +S  S E E    E
|-----------------------------------10---------------|--------------------------7------5-|
|-5p0-0-7p0-0-8p0--0---0-10b12-(10)----10pb12r(10)-8-|-10---10-8h====10-7-(7)s4----------|
|----------------------------------------------------|----9-----------------------6------|
|----------------------------------------------------|-----------------------------------|
|----------------------------------------------------|-----------------------------------|
|----------------------------------------------------|-----------------------------------|
|
| E   E   E   E   +E      E          S  S       E       E    E E        E  E    E S E.
|----------------------------------------------------|-----------------------------------|
|----------------------------------------------------|-----------------------------------|
|-9---9---7---9---(9)\-------------------------------|--------------------------0--------|
|-9---9---7---9---(9)\----3--------------------------|--2----2----------2-------0--------|
|-7---7---5---7---(7)\----1p=========0---------------|--0----0----------0----------------|
|---------------------------------------3p======0----|---------3b3.5------------3-0-3----|


  E5    D5E5     Bb5         A5                              G5
  E S S Q    E   S S Q       T T T T T T T T S     S S S S S S S E      +E
|--------------------------|------------------------------------------------|
|-8-7p5------8---7p5-------|-2p0-----2p0-----0------------------------------|
|-------6------------6-----|-----2p0-----2p0-------2p0---0-0----------------|
|--------------------------|---------------------------2--------------------|
|--------------------------|---------------------------------2p0------------|
|--------------------------|-------------------------------------3b4----(3)-|
|
| E E   E E +E   E   S S E   E       E       E       E   E   E   S   E.
|--------------------------|------------------------------------------------|
|--------------------------|------------------------------------------------|
|-9-9---7-9-(9)\-----------|---------------------------------0--------------|
|-9-9---7-9-(9)\-3---------|-2-------2---------------2-------0--------------|
|-7-7---5-7-(7)\-1p==0-----|-0-------0---------------0----------------------|
|----------------------3p0-|-----------------3b3.5-----------3---0---3------|


  Dsus2
  S    +E.    S  S E    +S     +S  S S Q
|------------10------------------------------|
|---------------10---------------------------|
|-9b11-(9)---------9b11r(9)b11r(9)p7---7-----|
|------------------------------------9-------|
|--------------------------------------------|
|--------------------------------------------|
|
| E        E  E    E     E         E   E E
|-0--------0--0----0-----0---------0---0-0---|
|-3--------3--3----3-----3---------3---3-3---|
|-2--------2--2----2-----2---------2---2-2---|
|-0--------0--0----0-----0---------0---0-0---|
|-0--------0--0----0-----0---------0---0-0---|
|--------------------------------------------|


                                                  Em
                                   ~~~~~
   S  S  S     +S   S  S  S  S  E  Q.              Q      Q      S     S  E     E      +E
|---------------------10------------------------|---------------------15-------------------|
|------------------10----13p10-13-13b15---------|-15b17--15b17--15b17----15b17-15pb17r(15)-|
|-------12b14-(12)------------------------------|------------------------------------------|
|-12p10-----------------------------------------|------------------------------------------|
|-----------------------------------------------|------------------------------------------|
|-----------------------------------------------|------------------------------------------|
|
|  E     E          E     E     E  E    S S S S    Q      Q      E        E     Q
|--0-----0----------0-----0-----0---------------|---------0---------------------0----------|
|--3-----3----------3-----3-----3---------------|---------0---------------------0----------|
|--2-----2----------2-----2-----2--2b3--2p0-----|---------0---------------------0----------|
|--0-----0----------0-----0-----0-----------2p0-|------------------------------------------|
|--0-----0----------0-----0-----0---------------|------------------------------------------|
|-----------------------------------------------|--0-------------0--------0----------------|


                                     D/G
                 |-----3-----|
    S  S  E     +S      +S   S  E  Q    +S      +S   S  S
|-----15-17b19r(17)b19r(17)p15----------------------------|
|-/17--------------------------17-17---(17)b20r(17)-17-17-|
|---------------------------------------------------------|
|---------------------------------------------------------|
|---------------------------------------------------------|
|---------------------------------------------------------|
|
|   E     E      Q                 E E   E           E
|----------------0-------------------2---2-----------2----|
|----------------0-------------------3---3-----------3----|
|----------------0-------------------2---2-----------2----|
|------------------------------------0---0-----------0----|
|------------------------------------0---0-----------0----|
|---0-----0------------------------0----------------------|


  D/G
   E     +E   S  E.     S     +S   S  S  Q
|------------15-----------------------------|
|-------------------------------------------|
|-14b16-(14)----14pb16-14b16r(14)-12----12--|
|------------------------------------14-----|
|-------------------------------------------|
|-------------------------------------------|
|
|  Q          Q         E          E     Q
|-------------2--------------------------2--|
|-------------3--------------------------3--|
|-------------2--------------------------2--|
|-------------0--------------------------0--|
|-------------------------------------------|
|--3--------------------3----------3--------|


   S  E  S      E   S     S  S     S     S     S     T     +T   T  T  S  S
|--------------------------------------------------------------------------|
|-------15----(15)-15-------15----15----15----15---------------------------|
|-12----14b16r=14--14b16r14-14b16-14b16-14b16-14b16-14b16r(14)p12----12-14-|
|----14-----------------------------------------------------------14-------|
|--------------------------------------------------------------------------|
|--------------------------------------------------------------------------|
|
|  Q            Q            E           E           Q
|---------------2------------------------------------2---------------------|
|---------------3------------------------------------3---------------------|
|---------------2------------------------------------2---------------------|
|---------------0------------------------------------0---------------------|
|--------------------------------------------------------------------------|
|--3-------------------------3-----------3---------------------------------|


  D                                                                           A5
                                                         |--3---|
   S     S  T  T  T  T  T  T  T  T  S     +S       +S   +T   T  T  S  T  T  Q
|----------12-------------------------------------------------------------------|
|-------12----15p12----12-------------------------------------------------------|
|-14b16-------------15----15s14p12-14b16r(14)b16==(14)r(14)p12----14-12----12---|
|--------------------------------------------------------------14-------14------|
|-------------------------------------------------------------------------------|
|-------------------------------------------------------------------------------|
|
|  E        E           E           E               E              E        E E
|--2--------2-----------2-----------2---------------0---------------------------|
|--3--------3-----------3-----------3------------------------------3------------|
|--2--------2-----------2-----------2---------------------------------------0---|
|--0--------0-----------0-----------0-----------------------------------------2-|
|--0--------0-----------0-----------0-----------------------------------------0-|
|-------------------------------------------------------------------------------|


   S  S  S  S  S  S  E  S  S  S  S  S S  S  S
|----------------------------------------------|
|----------------------------------------------|
|----------------------------------------------|
|-14-12----------------------------------------|
|-------14-13-12-10-------------10------14h15--|
|-------------------12-10-11-12----12-0--------|
|
|  E     E     E     E  E     E     E    E
|----------------------------------------------|
|----------------------------------------------|
|----------------------------------------------|
|--2-----2-----2-----2--2-----2-----2----2-----|
|--0-----0-----0-----0--0-----0-----0----0-----|
|----------------------------------------------|


                                                       ~~~~
   S  S  S  S  S  S  S     +S   S      S  S  S  S     +E.
|-------------------------------------12--------------------|
|----------------------------------------15p12-15b17-(15)---|
|-12----12-12-------14b16-(14)-14pb16-----------------------|
|-------------14p12-----------------------------------------|
|----14-----------------------------------------------------|
|-----------------------------------------------------------|
|
|  E     E     E     E          E         E     E         E
|-----------------------------------------------------------|
|-----------------------------------------------------------|
|-----------------------------------------------------------|
|--2-----2-----2-----2----------2---------2-----2---------2-|
|--0-----0-----0-----0----------0---------0-----0---------0-|
|-----------------------------------------------------------|


   |--3--|        |--3--|                               |--3--|  |-----6-----|
   e  e  e  S  T  T  T  T  T  T      +T   +T   T  T  T  S  S  S  S  S S  S S S
|-14-15-14-12-------------------------------------------------------------------|
|-------------15-14h15p14p12-14b15==(14)r(14)-12--------------------------------|
|------------------------------------------------14p12-14p12s11h12p11s9h11p9s7--|
|-------------------------------------------------------------------------------|
|-------------------------------------------------------------------------------|
|-------------------------------------------------------------------------------|
|
|  Q        Q                              Q                     Q
|-------------------------------------------------------------------------------|
|-------------------------------------------------------------------------------|
|-------------------------------------------------------------------------------|
|--2--------2------------------------------2---------------------2--------------|
|--0--------0------------------------------0---------------------0--------------|
|-------------------------------------------------------------------------------|


                                                Chorus
                                                 E5                     G5
                                                              Gtrs II, III
  |----6----| |----6----|       |-3-|
  S S S S S S S S S S S S T T S S S S S S S S    Q  Q  H      H.      S E.
|---------------------------------------------||------------|-----------3---|
|---------------------------------------------||------------|-----------3---|
|-9p7s6h7p6s4h6p4s2h4p2p0---------------------||------------|-----------0---|
|-------------------------2p0h2---------0-----||-2----------|-----------0---|
|-------------------------------2p0h1-2-------||------------|---------------|
|-----------------------------------------0-0-||------------|-----------3---|
|
| Q           Q           Q           E   E      Q  Q  H      W
|---------------------------------------------||------------|---------------|
|---------------------------------------------||------------|---------------|
|---------------------------------------------||------------|---------------|
|-2-----------2-----------2-----------2-------||-2----------|---------------|
|-0-----------0-----------0-----------0-------||------------|---------------|
|-----------------------------------------0---||------------|---------------|


  D5A5  E5              G5    A5
  E E E E E E E     E   E E E E Q  E E
|---------------------|-3--------------|
|-3-------------------|-3--------------|
|-2-2-----------------|-0-----2-2--2-2-|
|-0-2---2-------------|-0-----2-2--2-2-|
|---0---2-------------|-------0-0--0-0-|
|-------0---0-3b3.5-0-|-3-2-3----------|


  D5A5  E5              D5A5  E5
  E E E E E E E     E   E E E E E E E     E
|---------------------|----------------------|
|-3-------------------|-3--------------------|
|-2-2-----------------|-2-2------------------|
|-0-2---2-------------|-0-2---2--------------|
|---0---2-------------|---0---2--------------|
|-------0---0-3b3.5-0-|-------0---0-3b3.5-0--|


  D5A5  E5              G5    A5
  Gtr III
  W                     W
|---------------------|-----------------||
|---------------------|-----------------||
|---------------------|-----------------||
|---------------------|-----------------||
|---------------------|-----------------||
|---------------------|-----------------||
|
| Gtr II
| E E E E E E E     E   E E E E Q.   E
|---------------------|-3---------------||
|-3-------------------|-3---------------||
|-2-2-----------------|-0-----2-2-------||
|-0-2---2-------------|-0-----2-2----x\-||
|---0---2-------------|-------0-0-------||
|-------0---0-3b3.5-0-|-3-2-3-----------||


 Out-Solo
  D5  A5      E5                        D5  A5      E5
                                                        PM--------|
                  |----6----|                           |-3-| |-3-|
  E   +Q      +E  S S S S S S Q         S S S S S S S S E E E E E E
|-----------------0-------------------|------------------------------|
|-------------------3p0---------------|------------------------------|
|-2b4r(2)b4---(2)-------2p0-----------|------------------------------|
|---------------------------2-2-------|-----------0------------------|
|-------------------------------------|-0---0h1-2--------------------|
|-------------------------------------|---0---------3p0-0-0-0-0-0-0--|
|
|                                                       PM--------|
|                                                       |-3-| |-3-|
| E    E    E  E  E     E     E     E   E   E   E   E   E E E E E E
|-------------------------------------|------------------------------|
|-3-----------------------------------|-3----------------------------|
|-2----2------------------------------|-2---2------------------------|
|-0----2-------2----------------------|-0---2------------------------|
|------0-------2----------------------|-----0-------2---2-2-2-2-2-2--|
|--------------0--------0-----3b3.5-0-|-------------0---0-0-0-0-0-0--|


    D5A5  E5                          G5        A5
  a Q   E S S S S E     E     S T T   E S T T E S T T  E  S S a  S S S S
|-----------------3b3.5-0-----5s7p5p|=0-5s7p5p0-5s7p5p=0--0-0-5s10-0-0-0-|
|-3s5---5-0-3-5-3-------------------|------------------------------------|
|-----------------------------------|------------------------------------|
|-----------------------------------|------------------------------------|
|-----------------------------------|------------------------------------|
|-----------------------------------|------------------------------------|
|
|   E E E E   E   E     E     E       E E     E E     +E  E      E   E
|-----------------------------------|-3----------------------------------|
|---3-------------------------------|-3----------------------------------|
|---2-2-----------------------------|-0---------2-----(2)-2------2---2---|
|---0-2---2-------------------------|-0---------2-----(2)-2------2---2---|
|-----0---2-------------------------|-----------0-----(0)-0------0---0---|
|---------0-------0-----3b3.5-0-----|-3-2-----3--------------------------|


  D5    A5     E5
   E     +Q.      S  S  S  S  S     S  a  E
|-12----(12)--------------------------------|
|-15b17-(15)-----12----------15-----0-15s17-|
|-------------------12----------------------|
|----------------------14-12----------------|
|-------------------------------------------|
|-------------------------------------------|
|
|  E      E  E E  E     E     E           E
|-------------------------------------------|
|--3----------------------------------------|
|--2------2---------------------------------|
|--0------2----2----------------------------|
|---------0----2----------------------------|
|--------------0--------0-----3b3.5-------0-|


  D5    A5       E5               D5    A5           E5
                    PM--------|
                    |-3-| |-3-|
   S  S  E  S  S  E E E E E E E    E     +E      +Q     S  S  E  E      E
|-14s15----14-15----------------|-17b19r(17)b19-(17)------15--------------|
|-------12-------12-------------|----------------------17----17-17s====21-|
|-------------------------------|-----------------------------------------|
|-------------------------------|-----------------------------------------|
|-------------------------------|-----------------------------------------|
|-------------------0-0-0-0-0-0-|-----------------------------------------|
|
|                   PM--------|
|                   |-3-| |-3-|
|  E     E  E     E E E E E E E    E      E       E  E  E     E  E      E
|-------------------------------|-----------------------------------------|
|--3----------------------------|--3--------------------------------------|
|--2-----2----------------------|--2------2-------------------------------|
|--0-----2----------------------|--0------2----------2--------------------|
|--------0--------2-2-2-2-2-2-2-|---------0----------2--------------------|
|-----------------0-0-0-0-0-0-0-|--------------------0--------0--3b3.5--0-|


  G5                  A5
                         |-------6-------|  |------6-------|
  S S  S      S  +Q      S   S  S  S  S  S  S  S  S  S  S  S
|-----19b21==19-(19)r---19--19-19-17-17-17-15-15-15-14-14-14-|
|-0-0--------------------------------------------------------|
|------------------------------------------------------------|
|------------------------------------------------------------|
|------------------------------------------------------------|
|------------------------------------------------------------|
|
| E    E          E   E +E         E        E        E
|-3----------------------------------------------------------|
|-3----------------------------------------------------------|
|-0-------------------2-(2)--------2--------2--------2-------|
|-0-------------------2-(2)--------2--------2--------2-------|
|---------------------0-(0)--------0--------0--------0-------|
|-3----2----------3------------------------------------------|


  D5           A5                         E5
   S     S      S      S      S     S      S      S      S     S      S      S      S      S      S      S
|-15----15-----15-----15-----15----15-----15-----15-----15----15-----15-----15-----15-----15-----15-----15-----|
|-15b17-15pb17-15pb17-15pb17-15b17-15pb17-15pb17-15pb17-15b17-15pb17-15pb17-15pb17-15b17--15pb17-15pb17-15pb17-|
|--------------------------------------------------------------------------------------------------------------|
|--------------------------------------------------------------------------------------------------------------|
|--------------------------------------------------------------------------------------------------------------|
|--------------------------------------------------------------------------------------------------------------|
|
|  E            E             E            E             E            E             E             E
|--------------------------------------------------------------------------------------------------------------|
|--3-----------------------------------------------------------------------------------------------------------|
|--2------------2----------------------------------------------------------------------------------------------|
|--0------------2--------------------------2-------------------------------------------------------------------|
|---------------0--------------------------2-------------------------------------------------------------------|
|------------------------------------------0--------------------------0-------------3b3.5---------0------------|


  D5           A5                         E5
                                                        PM--------|
                                                        |-3-| |-3-|
   S     S      S      S      S     S      S      S     E E E E E E
|-15----15-----15-----15-----15----15-----15-----15-----------------|
|-15b17-15pb17-15pb17-15pb17-15b17-15pb17-15pb17-15pb17-------------|
|-------------------------------------------------------------------|
|-------------------------------------------------------2-0---------|
|-----------------------------------------------------------2-1-0---|
|-----------------------------------------------------------------3-|
|
|                                                       PM--------|
|                                                       |-3-| |-3-|
|  E            E             E            E            E E E E E E
|-------------------------------------------------------------------|
|--3----------------------------------------------------------------|
|--2------------2---------------------------------------------------|
|--0------------2---------------------------------------------------|
|---------------0--------------------------2------------2-2-2-2-2-2-|
|------------------------------------------0------------0-0-0-0-0-0-|


  D5           A5                         E5
   S     S      S      S      S     S      S      S      S     S      S      S      S      S      S      S
|-15----15-----15-----15-----15----15-----15-----15-----15----15-----15-----15-----15-----15-----15-----15-----|
|-15b17-15pb17-15pb17-15pb17-15b17-15pb17-15pb17-15pb17-15b17-15pb17-15pb17-15pb17-15b17--15pb17-15pb17-15pb17-|
|--------------------------------------------------------------------------------------------------------------|
|--------------------------------------------------------------------------------------------------------------|
|--------------------------------------------------------------------------------------------------------------|
|--------------------------------------------------------------------------------------------------------------|
|
|  E            E             E            E             E            E             E             E
|--------------------------------------------------------------------------------------------------------------|
|--3-----------------------------------------------------------------------------------------------------------|
|--2------------2----------------------------------------------------------------------------------------------|
|--0------------2--------------------------2-------------------------------------------------------------------|
|---------------0--------------------------2-------------------------------------------------------------------|
|------------------------------------------0--------------------------0-------------3b3.5---------0------------|


  G5                   A5                                                  D5A5  E5
   E  S      +S   +E    S      S      E   S      +S   +E    S      S       W
|-22-22b24==(22)-(22)r-22pb24-22pb24-22--22b24==(22)-(22)r-22pb24-22pb24-|---------------------|
|------------------------------------------------------------------------|---------------------|
|------------------------------------------------------------------------|---------------------|
|------------------------------------------------------------------------|---------------------|
|------------------------------------------------------------------------|---------------------|
|------------------------------------------------------------------------|---------------------|
|
|                                                                          Gtrs II, III
|  E  E            E    E            +E   E            E    E              E E E E E E E     E
|--3---------------------------------------------------------------------|---------------------|
|--3---------------------------------------------------------------------|-3-------------------|
|--0--------------------2------------(2)--2------------2----2------------|-2-2-----------------|
|--0--------------------2------------(2)--2------------2----2------------|-0-2---2-------------|
|-----------------------0------------(0)--0------------0----0------------|---0---2-------------|
|--3--2------------3-----------------------------------------------------|-------0---0-3b3.5-0-|


                                                            Outro - Free Time
  D5A5  E5              D5A5  E5              G5             A5
                                             2/4            4/4
  Gtrs II, III
          PM--------|
          |-3-| |-3-|                         |-3-| |-3-|
  E E E E E E E E E E   E E E E E E E     E   E E E E E E    W
|---------------------|---------------------|-3-----3-----||------|
|-3-------------------|-3-------------------|-3-----3-----||------|
|-2-2-----------------|-2-2-----------------|-0-----0-----||-2----|
|-0-2-----------------|-0-2---2-------------|-0-----0-----||-2----|
|---0---2-2-2-2-2-2-2-|---0---2-------------|-------------||-0----|
|-------0-0-0-0-0-0-0-|-------0---0-3b3.5-0-|-3-2-3-3-2-3-||------|


  +W           +W           +W           +W
|------------:------------:------------:--------|
|------------:------------:------------:--------|
|-(2)--------:-(2)--------:-(2)--------:-(2)----|
|-(2)--------:-(2)--------:-(2)--------:-(2)----|
|-(0)--------:-(0)--------:-(0)--------:-(0)----|
|------------:------------:------------:--------|


  E5
     TP
  Q  H.
|---------------------:
|---------------------:
|---------------------:
|-2--2----------------:
|-2--2----------------:
|-0--0----------------:
|
| Gtr III
| Q  E    +E  +H
|----7b9==(7)-(7)r----:
|---------------------:
|---------------------:
|---------------------:
|---------------------:
|-0-------------------:


   TP
  +W
|-------------------------------------------------------------------------------------------------------------------|
|-------------------------------------------------------------------------------------------------------------------|
|-------------------------------------------------------------------------------------------------------------------|
|-(2)---------------------------------------------------------------------------------------------------------------|
|-(2)---------------------------------------------------------------------------------------------------------------|
|-(0)---------------------------------------------------------------------------------------------------------------|
|
|                    T           T     T
|                                                  |--3--|        |--3--|  |-----3------|                    |--3--|
|  T  T  T  T  T  T  T  T  T  T  T  T  T  T  T  T  T  T  T  T  T  T  T  T  T      +T   +T   S      +T   +T   S  S  S
|-14p12h15p12h14p12-17p12h15p12-19p12-21p12-15p12-15p14p12----------------------------------------------------------|
|----------------------------------------------------------15p12-15p14p12-14b15==(14)r(14)--------------------------|
|------------------------------------------------------------------------------------------14b16==(14)r(14)-12----12|
|--------------------------------------------------------------------------------------------------------------14---|
|-------------------------------------------------------------------------------------------------------------------|
|-------------------------------------------------------------------------------------------------------------------|


   TP
  +W
|---------------------------------------------------------------:
|---------------------------------------------------------------:
|---------------------------------------------------------------:
|-(2)-----------------------------------------------------------:
|-(2)-----------------------------------------------------------:
|-(0)-----------------------------------------------------------:
|
|                 ~~~~~
|                                 |----3----|      |----3----|
|  E.    S  S  S  E     +E   +E   S    +S  +S     +S  +S    +S
|----------12---------------------------------------------------:
|-------12----12-15b18-(15)-(15)\-2b3==(2)r(2)b3==(2)r(2)b3-(2)-:
|-14b16---------------------------------------------------------:
|---------------------------------------------------------------:
|---------------------------------------------------------------:
|---------------------------------------------------------------:


   TP
  +W
|-----------------------------------------------------|
|-----------------------------------------------------|
|-----------------------------------------------------|
|-(2)-------------------------------------------------|
|-(2)-------------------------------------------------|
|-(0)-------------------------------------------------|
|
|                         |-----6------| |----6----|
|  S S S S    +S  +E.    +S  +S  S S S S S S S S S S
|------3-5b6==(5)r(5)b6==(5)r(5)-3---5---3p0----------|
|--3s5-----------------------------5---5-----2p0------|
|------------------------------------------------2p0--|
|-----------------------------------------------------|
|-----------------------------------------------------|
|-----------------------------------------------------|


                               E5                               A5
                                                                Gtrs II, III
   TP
  +H                           H      +W           +W           W
|-----------------------------------:------------:------------:------|
|-----------------------------------:------------:------------:------|
|-----------------------------------:------------:------------:-2----|
|-(2)--------------------------2----:-(2)--------:-(2)--------:-2----|
|-(2)--------------------------2----:-(2)--------:-(2)--------:-0----|
|-(0)--------------------------0----:-(0)--------:-(0)--------:------|
|
|  |-----7-----| |-----7-----|
|  S S S S S S S S S S S S S S H      +W           +W           W
|--------0--------------------------:------------:------------:------|
|------0----------------------------:------------:------------:------|
|--2s3-----2p0---2p0----------------:------------:------------:------|
|--------------2-----2p0-------2----:-(2)--------:-(2)--------:------|
|------------------------2p0--------:------------:------------:------|
|----------------------------3------:------------:------------:------|


                         |--3--|
  W          H    H      H  H  H    Q  Q  Q  Q
|----------:-----------:----------:-------------|
|----------:-----------:----------:-------------|
|-2--------:-2----2----:-2--2--2--:-2--2--2--2--|
|-2--------:-2----2----:-2--2--2--:-2--2--2--2--|
|-0--------:-0----0----:-0--0--0--:-0--0--0--0--|
|----------:-----------:----------:-------------|


                                                F5E5
  TP          TP
  W          +W           +W           +H.      E E
|----------:------------:------------:---------------*|
|----------:------------:------------:---------------*|
|-2--------:-(2)--------:-(2)--------:-(2)-----------*|
|-2--------:-(2)--------:-(2)--------:-(2)------3-2--*|
|-0--------:-(0)--------:-(0)--------:-(0)------3-2--*|
|----------:------------:------------:----------1-0--*|


Duration Legend
---------------
W - whole; H - half; Q - quarter; E - 8th; S - 16th; T - 32nd; X - 64th; a - acciaccatura
+ - note tied to previous; . - note dotted; .. - note double dotted
Uncapitalized letters represent notes that are staccato (1/2 duration)
Irregular groupings are notated above the duration line
Duration letters will always appear directly above the note/fret number it represents the
duration for.  Duration letters with no fret number below them represent rests.  Multi-
bar rests are notated in the form Wxn, where n is the number of bars to rest for.  Low
melody durations appear below the staff

Tablature Legend
----------------
 h   - hammer-on
 p   - pull-off
 b   - bend
 pb  - pre-bend
 r   - bend release (if no number after the r, then release immediately)
 /\  - slide into or out of (from/to "nowhere")
 s   - legato slide
 S   - shift slide
  - natural harmonic
[n]  - artificial harmonic
n(n) - tapped harmonic
 ~   - vibrato
 tr  - trill
 T   - tap
 TP  - trem. picking
 PM  - palm muting
\n/  - tremolo bar dip; n = amount to dip
 \n  - tremolo bar down
 n/  - tremolo bar up
/n\  - tremolo bar inverted dip
 =   - hold bend; also acts as connecting device for hammers/pulls
   - volume swell (louder/softer)
 x   - on rhythm slash represents muted slash
 o   - on rhythm slash represents single note slash

Misc Legend
-----------
 |  - bar
||  - double bar
||o - repeat start
o|| - repeat end
*|  - double bar (ending)
 :  - bar (freetime)
 $  - Segno
 &  - Coda
Tempo markers -  = BPM(8/16=s8/s16), where s8 = swing 8ths, s16 = swing 16ths
            
Submit corrections

comments powered by Disqus
↑ Back to top | Darkness Tabs for Love On The Rocks With No Ice. Lyrics for acoustic guitar and electric guitar. Tablatures and chords are parodies/interpretations of the original songs. You may use it for private study, scholarship, research or language learning purposes only