» » »

Love On The Rocks Bass tabs (ver.1)

Artists:  A B C D E F G H I J K L M N O P Q R S T U V W X Y Z # 

Love On The Rocks Bass tabs (ver.1)

Darkness
Rating:
0/5 (0 votes)

Hard to play? Try these video lessons and learn fast.
                
Verse
G-------------------------------------------------------
D-------------------------------------------------------
A-------------------------------------------------------
D-2-2-0-2---8-75-57-7-5-7---8-75------------------------

Pre-chorus
G------------------------------------------------------------------
D------------------------------------------------------------------
A-5-5-5-5-5-5-5-5-5-5-5-5-5-5-5-5----------------------------------
D---------------------------------2-2-2-2-2-2-2-2-2-2-2-2-2-2-4-44-

G-------------------------------------------------------
D-------------------------------------------------------
A---------------------------------5---5---4-5-7-0-------
D-5-5-5-5-5-5-5-5-5-5-5-5-5-5-5-5-----------------------

Chorus     a)x3...  b)x1...  c)play part a)x3 then this
G----------------|---------|----------------------------
D----------------|---------|----------------------------
A-5--------------|---------|----------------------------
D---7---2--2-5-0-|-5-4-5-7-|-5-4-2-5-4-0-7--------------

Verse
Pre-chorus
Chorus

Verse Solo
G-------------------------------------------------------
D-------------------------------------------------------
A-------------------------------------------------------
D-2-2-0-2---8-75-57-7-5-7---5-75------------------------

Pre-chorus
rest

G--------
D--------
A--------
D--5-0---

Chorus

Chorus variation (during solo)      x2       x1
G-------------------------------------|---------|-------
D-------------------------------------|---------|-------
A-5--------------5--------------------|---------|-------
D---7---2--2-5-0---7---2--2-2-2-2-2-2-|-5-4-5-7-|-------
            
Hard to play? Try these video lessons and learn fast. | Correct




comments powered by Disqus
↑ Back to top | Tablatures and chords are parodies/interpretations of the original songs. You may use it for private study, scholarship, research or language learning purposes only