» » »

Darkness, Givin Up Tabs (ver.3)

Artists:  A B C D E F G H I J K L M N O P Q R S T U V W X Y Z # 

Givin Up Tabs (ver.3)

Darkness Tabs
 Rating:
4/5 (4 votes)
Givin Up lessons Tabs too difficult? Try these video lessons and learn fast
1
                (1)
-------------------------------------------------------------------------------
                             Givin' Up - The Darkness
-------------------------------------------------------------------------------

Tuning:Standard EADGBe

I've seen a few tabs on this song but none of them sound right to me, so I
decided to tab it myself. Hopefully it works out.

Intro/verse:
e|---------------------------------------------------------------------------|
B|-3-2-2-3-2-2-x-3-2-2-3-2-2-x-3-2-2-3-3-3-2---------------------------------|
G|-2-2-2-2-2-2-x-2-2-2-2-2-2-x-2-2-2-2-2-2-2------------2--------------------|
D|-4-2-2-4-2-2-x-4-2-2-4-2-2-x-4-2-2-4-4-4-2--2--2------2--------------------|
A|--------------------------------------------2--2------0--------------------|
E|--------------------------------------------0--0---3-----------------------|


At the end of the verse, play:
e|---------------------------------------------------------------------------|
B|---------------------------------------------------------------------------|
G|----------------------2----------------------------------------------------|
D|----------------------2----------------------------------------------------|
A|-2-2------------------0----------------------------------------------------|
E|------0-2-0-2--0h2h4-------------------------------------------------------|

Pre-chorus (Well I've ruined nearly...):
e|---------------------------------------------------------------------------|
B|------------------------2----------------------------2---------------------|
G|-2-2--------------------3--2--2-2--------------------3--2------------------|
D|-2-2--2-2--2--2--2--2---0--2--2-2--2-2--2--2--2--2---0--2------------------|
A|-0-0--2-2--2--2--2--2------0--0-0--2-2--2--2--2--2------0------------------|
E|------0-0--0--0--0--0--------------0-0--0--0--0--0-------------------------|

(Into my arms...):
e|------------------0-0-0----------------------------------------------------|
B|-7--5-5--3--------3-3-3-----7--5-5--3------5-------------------------------|
G|-7--6-6--4--2-----2-2-2-----7--6-6--4--2/6----6\2--------------------------|
D|--------------4------------------------------------------------------------|
A|---------------------------------------------------------------------------|
E|---------------------------------------------------------------------------|


Chorus:
e|---------------------------------------------------------------------------|
B|---------------------------------------------------------------------------|
G|-2-2-2-2-2-2-2-2-2-2-2-2-2-2-2-2-2-2-----------2---------------------------|
D|-2-2-2-2-2-2-2-2-2-2-2-2-2-2-2-2-2-2--2--2-----2---------------------------|
A|-0-0-0-0-0-0-0-0-0-0-0-0-0-0-0-0-0-0--2--2-----0---------------------------|
E|--------------------------------------0--0--3------------------------------|


Chorus Outro:
e|---------------------------------------------------------------------------|
B|---------------------------------------------------------------------------|
G|-2-----------------------2-------------------------------------------------|
D|-2-----------------------2-------------------------------------------------|
A|-0-----------------------0-------------------------------------------------|
E|-----0--2--0--2---0h2h4----------------------------------------------------|


Solo:
e|---------------------------------------------------------------------------|
B|--7-7-7-----9-9-9----10-10-10---10--10--12--12b---12b---12---10--12--------|
G|--7-7-7-----9-9-9----10-10-10----------------------------------------------|
D|--7-7-7-----9-9-9----10-10-10----------------------------------------------|
A|---------------------------------------------------------------------------|
E|---------------------------------------------------------------------------|

e|------------------------------0-9-7-5-4-2----------------------------------|
B|--12-12-12-12-14--14b--14b----------------5-3-2----------------------------|
G|------------------------------------------------4-2-1----------------------|
D|------------------------------------------------------4-2-0----------------|
A|------------------------------------------------------------4-2------------|
E|---------------------------------------------------------------------------|

e|----------------------------0--0--0--0--0--0---0-~~~~----------------------|
B|-------------------3-----5--4b-4b-4b-4b-4b-4b--4b~~~~----------------------|
G|-------------1-2-4---4/6----4b-4b-4b-4b-4b-4b--4b~~~~----------------------|
D|-------0-2-4---------------------------------------------------------------|
A|-0-2-4---------------------------------------------------------------------|
E|---------------------------------------------------------------------------|

I'm working on the rest of the solo, I'll try to get it up later.
Hope you enjoy!


| /  slide up
| \  slide down
| h  hammer-on
| p  pull-off
| ~  vibrato
| +  harmonic
| x  Mute note
| b  bend note
===============================================================================
            
Submit corrections

comments powered by Disqus
↑ Back to top | Darkness Tabs for Givin Up. Lyrics for acoustic guitar and electric guitar. 1 Tablatures and chords are parodies/interpretations of the original songs. You may use it for private study, scholarship, research or language learning purposes only