» » »

Christmas Time Chords (ver.1)

Artists:  A B C D E F G H I J K L M N O P Q R S T U V W X Y Z # 

Christmas Time Chords (ver.1)

Darkness
Rating:
4/5 (9 votes)

Hard to play? Try these video lessons and learn fast.
                

This is the 100% right version I promise. And I've added the intro with 3 guitars.

Chords  DADGBE
A5     |77----|
E/G#   |76----|
F#5    |44----|
D5     |0002--|
E5     |22----|
A      |-02220|
E/A    |-02100|
E7/A   |-02430|
E      |222100|
Bm7    |--423-|
D      |000232|
B5     |-244--|
Asus2  |-024--|
A/C#   |-422--|
D/A    |-0432-|
E/A*   |-0645-|
D/F#   |45----|
B5*    |99----|
F#/G#5 |89----|
G#5    |66----|
B      |-24442|
E*     |---454|
F#     |---676|

Intro:
Guitar 1:
e|--------------------------|-12-10h12p10\9-14--12h14p12---------9-10|
B|-15b16-15b16-15b16p14-----|----------------------------------------|
G|--------------------------|----------------------------------------|
D|--------------------------|----------------------------------------|
A|--------------------------|----------------------------------------|
D|--------------------------|----------------------------------------|

Guitar 2:
e|--------------------------|----------------------------------------|
B|--------------------------|---------------15--14h15p14\12----------|
G|-16b17-16b17-16b17p15-----|-18-16h18p16\14-------------------14-16-|
D|--------------------------|----------------------------------------|
A|--------------------------|----------------------------------------|
D|--------------------------|----------------------------------------|

Guitar 3:
e|--------------------------|----------------------------------------|
B|--------------------------|----------------------------------------|
G|-----------------------2--|----------------------------------------|
D|-----------------------0--|----------------------------------------|
A|-7---------7-4---------0--|-7-------------0-----------2------------|
D|-7---------6-4---------0--|-7-------------0-----------2----2--4--6-|


Guitar 1:
e|-10b11-10b11-10b11-10b11p9---\----|-12--10h12p10\9--14-b15--14b15--14--|
B|----------------------------------|------------------------------------|
G|----------------------------------|------------------------------------|
D|----------------------------------|------------------------------------|
A|----------------------------------|------------------------------------|
D|----------------------------------|------------------------------------|

Guitar 2:
e|----------------------------------|------------------------------------|
B|----------------------------------|-14--------------15-b16--15b16--15--|
G|-16b17-16b17-16b17-16b17p14--\----|----16h18p16\14---------------------|
D|----------------------------------|------------------------------------|
A|----------------------------------|------------------------------------|
D|----------------------------------|------------------------------------|

Guitar 3:
e|----------------------------------|------------------------------------|
B|----------------------------------|------------------------------------|
G|----------------------------2-----|------------------------------------|
D|----------------------------0-----|------------------------------------|
A|-7----7-------------4-------0-----|-7---------------0-------2----------|
D|-7----6-------------4-------0-----|-7---------------0-------2--2-2-4-6-|


A  E/A      E7/A    A          E
   Feigning Joy and surprise,
                             Bm7
At the gifts we despise over mulled wine
      D  A
With you
E/A    E7/A        A     E
On the tenty-fifth Day,
                                         Bm7
Of the twelth month the sleigh bells are in time
        D    B5
Ringing true
                   Asus2
How we cling each Noel,
          B5        A/C#    D5
To that snowflake's hope in hell
B5            A5 E/G# F#5  D5
That it won't end________


A5            D5    E5
Don't let the bells end
A5    E/G# F#5  D5 A5            D5      E5
Christmas  Time,   just let them ring in peace


A E/A         E7/A       A       E
 Well the the weather is cruel
                                  Bm7 
But this season of Yule warms the heart
             D      A
But it still hurts
E/A    E7/A        A     E
You've got your career
                                  Bm7
Spent the best part of last year apart
       D       B5
And it hurts
                 Asus2
And that's why I pray
B              A/C#      D5
Each and every Christmas Day
B5            A5 E/G# F#5  D5
That it won't end________


A5            D5    E5
Don't let the bells end
A5    E/G# F#5  D5 A5            D5      E5
Christmas  Time,   just let them ring in peace


F#5                             E5
Poised underneath the mistletoe leaf
     A5
When you're not here
B5                        A/C#
You went away, upon Boxing Day
    D5              E5      D/F#      E/G#       A5
Now how the hell am I gonna make it into the New Year


SOLOS

B              E*                  F#
Christmas Time don't let the bells end
B              E*                  F#
Christmas Time don't let the bells end
B5*   F#/Bb Ab5 E5 B5*           E5    F#5
Christmas   Time   don't let the bells end
B5* F#/Bb Ab5  E5 B5*           E5      F#5
Christmas Time,   just let them ring in peace
        E5
come on kids!


Fin.



repeat the Christmas time bit at the end loads of times.
            
Hard to play? Try these video lessons and learn fast. | Correct




comments powered by Disqus
↑ Back to top | Tablatures and chords are parodies/interpretations of the original songs. You may use it for private study, scholarship, research or language learning purposes only