» » »

Street Spirit Tabs (ver.1)

Artists:  A B C D E F G H I J K L M N O P Q R S T U V W X Y Z # 

Street Spirit Tabs (ver.1)

Darkness
Rating:
0/5 (0 votes)

Tabs too difficult? Try these video lessons and learn fast.
                Intro/Verse
e|---------0---------------0---------------0-------------------|
B|-----------------3---------------1---------------0-----------|
G|----------------------------------------------------2-----2--|
D|----2-2-----2-2-----2-2-----2-2-----2-2-----2-2--------2-----|
A|-0-----------------------------------------------------------|
E|-------------------------------------------------------------|
p.m   ...     ...     ...     ...     ...     ...

(N.B. last time end 3 notes are pinch harmonics)

Verse Variation
e|-------------------------------------------|
B|-------------------------------------------|
G|----------9---7---5------------7---5---4---|
D|-2--------x---x---x---2--------x---x---x---|
A|-2--------7---5---3---2--------5---3---2---|
E|-0--------------------0--------------------|

Chorus
e|-------------------------------------------------------------------------|
B|-------------------------------------------------------------------------|
G|-5--5--5--5--5--5--5--5--------------------------------------------------|
D|-5--5--5--5--5--5--5--5--2--2--2--2--2--2--2--2--7--7--7--7--7--7--7--7--|
A|-3--3--3--3--3--3--3--3--2--2--2--2--2--2--2--2--7--7--7--7--7--7--7--7--|
E|-------------------------0--0--0--0--0--0--0--0--5--5--5--5--5--5--5--5--|

Interlude 1
   //     //  //     //  //     //   //      //   //      //   //    
e|---------------------------------------------------------------------|
B|---------------------------------------------------------------------|
G|-2------4---5------7---8------10---11------13---14------16---17------|
D|---------------------------------------------------------------------|
A|---------------------------------------------------------------------|
E|---------------------------------------------------------------------|

   //   //
e|-----------------------|
B|-----------------------|
G|-19---20^(slow bend)---|
D|-----------------------|
A|-----------------------|
E|-----------------------|

Verse 2
e|-----------------------------------------------------------------|
B|------------------------------0-------------------------------0--|
G|------------------------------2-------------------------------2--|
D|------2-------2-------2-------2-------2-------2-------2-------2--|
A|-0-0--0--0-0--0--0-0--0--0-0--0--0-0--0--0-0--0--0-0--0--0-0--0--|
E|-----------------------------------------------------------------|
p.m...     ...     ...     ...     ...     ...     ...     ...

Interlude 2 (w/reverb)
e|------0-------0-------0---------------0-------0-------0------------|
B|------------------------0-----------------3-------1-------0--------|
G|--------------------------2---2---------2---2---2---2---2---2---2--|
D|---2-------2-------2--------2------2--------------------------2----|
A|-0-------0-------0---------------0---------------------------------|
E|-------------------------------------------------------------------|

End On
e|-----|
B|-----|
G|-----|
D|-7\\-|
A|-7\\-|
E|-5\\-|

Legend
p.m.     palm mute dotted notes
//       tremlow pick note
^        bend
x        muted note
\        slide towards nut
/        slide towards body
            
Tabs too difficult? Try these video lessons and learn fast.


comments powered by Disqus
↑ Back to top | Tablatures and chords are parodies/interpretations of the original songs. You may use it for private study, scholarship, research or language learning purposes only