>
 >
Shake Like A Lettuce Leave

Shake Like A Lettuce Leave Guitar Tabs

Darkness - Shake Like A Lettuce Leave chords, tabs, tablatures, lyrics

Guitar lessons | Add/correct | Request | Top 50 tabs Artists:  A B C D E F G H I J K L M N O P Q R S T U V W X Y Z 0-9

Shake Like A Lettuce Leave Guitar Tabs – Darkness

CD, Sheet music, Poster

Do you like Shake Like A Lettuce Leave? Share with your friends now
TabsTabs v2
B-side off "Is It Just Me?"

Intro

e----------------------------------------------------|
B------------------------------------3---------------|
G--9---6\7---------------------------2--2------------|
D--9---6\7---2-----------2-----------0--2------2-----|
A--7---4\5---0-----2-----0-----2--------0------2-----|
E------4\5------3--0--------3--0-----------3---0-----|

X2

Verse
   PM PM PM PM PM
e------------------------------------------------------------------|
B------------------------------------------3-----------------------|
G-------------------4--4--4---4------------2---2-------------------|
D-------------------4--4--4---4------------0---2------2------------|
A---2--2--2--2--2---2--0--2---2-------2--------0------2------------|
E---0--0--0--0--0-----------------3b--0------------3--0------------|

Pre-Chorus

e------------------3----|
B------------------3----|
G------------------0----|
D--2--4--5--4--2---0----|
A--0--0--0--0--0--------|
E------------------3----|

X3

Then

e----------3----
B----------3----
G--44444---0----
D--44444---0----
A--22222--------
E----------3----


Chorus

e----------------------------------------------------|
B------------------------------------3---------------|
G--9---6\7---------------------------2--2------------|
D--9---6\7---2-----------2-----------0--2------2-----|
A--7---4\5---0-----2-----0-----2--------0------2-----|
E------4\5------3--0--------3--0-----------3---0-----|
Then
                                  (extra part played during solo)

e--3---0--0----------------------|---3--0--0---------------5b-------|
B--------------3--3--3--3---5----|------------3--3--3--3------------|
G--------------------------------|----------------------------------|
D--------------------------------|----------------------------------|
A--------------------------------|----------------------------------|
E--------------------------------|----------------------------------|





Comments


Popular Darkness tabs & chords
I Believe In A Thing Called Love 4 Bass Tabs
Thing Called Love 1 Bass Tabs
Blind Man Chords
She Just A Girl Eddie Chords
Friday Night 1 Tabs
Friday Night 4 Tabs
I Believe In A Thing Called Love 8 Tabs
I Believe In A Thing Called Love Correct Tabs
Stuck In A Rut 1 Tabs
With A Woman Intro Tabs


Song lyrics



↑ Back to top | Tablatures and chords are parodies/interpretations of the original songs. You may use it for private study, scholarship, research or language learning purposes only
© 2014 AZChords.com Contact us | Privacy policy | DMCA | Add/correct tabs | Request tabs | Top 50 tabs