» » »

One Way Ticket Tabs (ver.3)

Artists:  A B C D E F G H I J K L M N O P Q R S T U V W X Y Z # 

One Way Ticket Tabs (ver.3)

Darkness
Rating:
0/5 (0 votes)

Hard to play? Try these video lessons and learn fast.
                This is one of my fave songs and I was annoyed at how another guy got a 5 when
the chorus wasn't tabbed correctly. Here's how it really goes. Enjoy!

e|--------------------------------------------------------------|
B|--------------------------------------------------------------|
G|-------2-----4---4--4----4----4--4-------2---2---2---4--6---4-|Let ring
D|-------2-----4---4--4----4----4--4-------2---2---2---4--6---4-|until next
A|-------0-----2---2--2----2----2--2-------0---0---0---2--4---2-|part.
E|-0-2-4---4-2------------------------4--4----------------------|
one way...   ...hell and back     bought a one way...  hell and back...
   

e|---------------------------------------------------------------|
B|---------------------------------------------------------------|
G|-------2-----4---4--4----4----4--4------2---2---9---------9----|
D|-------2-----4---4--4----4----4--4------2---2---9---9--9--9--9-|
A|-------0-----2---2--2----2----2--2------0---0---7---9--9--7--9-|
E|-0-2-4---4-2-----------------------4--4-------------7--7-----7-|
one way...    ...hell and back    bought a...     HEEEEEEEELLLLLLL!!


Rhythm during solo:

e|-----------------------------------------------------------------|
B|-----------------------------------------------------------------|
G|-6--4--6--4--------------4---5---6--6----------------------------|
D|-6--4--6--4----4----2----4---5---6--6----6--6----4--4----2--2----|
A|-4--2--4--2----4----2----2---3---4--4----6--6----4--4----2--2----|
E|---------------2----0--------------------4--4----2--2----0--0----|

e|--------------------------------------------------------------|
B|--------------------------------------------------------------|
G|-4---5---6--4--6--4--------------4---5---6--6-----------------|
D|-4---5---6--4--6--4----4----2----4---5---6--6----6--6----4--4-|
A|-2---3---4--2--4--2----4----2----2---3---4--4----6--6----4--4-|
E|-----------------------2----0--------------------4--4----2--2-|

e|---------------|
B|---------------|
G|---------------|
D|-2-2-2-2-2-2-2-|
A|-2-2-2-2-2-2-2-|
E|-0-0-0-0-0-0-0-|

There. Hope that helps. :)
            
Hard to play? Try these video lessons and learn fast. | Correct




comments powered by Disqus
↑ Back to top | Tablatures and chords are parodies/interpretations of the original songs. You may use it for private study, scholarship, research or language learning purposes only