» » »

Darkness, I Believe In A Thing Called Love (Solo Ver ) Tabs (ver.2)

Artists:  A B C D E F G H I J K L M N O P Q R S T U V W X Y Z # 

I Believe In A Thing Called Love (Solo Ver ) Tabs (ver.2)

Darkness Tabs
 Rating:
4/5 (4 votes)
I Believe In A Thing Called Love (Solo Ver ) lessons Tabs too difficult? Try these video lessons and learn fast
                "(3)
Tuning: Standard (E A D G B E)

The first solo and teh second solo are about 99.5% correct

b-bend
pb-prebend
h-hammeron
p-pulloff
br-bend and release
rpb-release prebend
*****Those are all the finger effects you need to do****

1st Solo


E|-----------------------||--16bnr-----------||
B|-----17------17--------||---------17-------||
G|-16b----pb16----rpb16--||------------16----||
D|-----------------------||------------------||
A|-----------------------||------------------||
E|-----------------------||------------------||

E|---------------------||-------------||
B|---------------------||-----15b-----||
G|-13bnr---------------||-------------||
D|----------14---------||-------------||
A|---------------------||-------------||
E|---------------------||-------------||

For the parts that sound like 2 strings are being bent, there is a rythm guitar doing the second string

2nd Solo



E|-0--0--0--0--0--0--0------||--7-------7---------------||
B|-5--5--5--5--5--5--5--7b--||-----pb7-----rpb7--5---7--||
G|--------------------------||--------------------------||
D|--------------------------||--------------------------||
A|--------------------------||--------------------------||
E|--------------------------||--------------------------||

E|-0--0--0--0---||-----------------||
B|-5--4--2--0---||-----------------||
G|----------4---||--1---2---4--4---||
D|--------------||-----------------||
A|--------------||-----------------||
E|--------------||-----------------||


E|----------------------||--------------------------||
B|----------------------||--------------------------||
G|--6--6--6--4--2-------||--2h4--4--4---6--4--2--2--||
D|-----------------4----||--------------------------||
A|----------------------||--------------------------||
E|----------------------||--------------------------||


E|--0----0--------||--------------||
B|--5----0---0----||--------------||
G|-----------1----||--1--2--4--4--||
D|----------------||--------------||
A|----------------||--------------||
E|----------------||--------------||


E|-------------------------||--9-----------9----------||
B|--10-----10--10-----9----||------9---9--------------||
G|--13b----13b-13b---11b---||---------11b------pbr11--||
D|-------------------------||-------------------------||
A|-------------------------||-------------------------||
E|-------------------------||-------------------------||

(played quickly)
E|-9-------9-------------------------------||
B|---12p9----12p9--------------------------||
G|-----------------11--9---11p9-----9---9--||
D|------------------------------11---------||
A|-----------------------------------------||
E|-----------------------------------------||


E|--------------------||--------------------------------------||
B|--------------------||--------------------------------------||
G|--11--9------9------||----------------------------9---------||
D|---------11------11-||------------9--------9--11-----11-----||
A|--------------------||-(9)11--11-----11---------------------||
E|--------------------||--------------------------------------||

E|------------------------------||-----------------------||
B|--------9------9------9-------||----9---10--12--12-----||
G|--------9------9------9-------||----9---11--13--13-----||
D|-9--11-----11-----11------11--||-----------------------||
A|------------------------------||-----------------------||
E|------------------------------||-----------------------||

If your confused about anything e-mail me!!!! I will help you!
"            
Submit corrections

comments powered by Disqus
↑ Back to top | Darkness Tabs for I Believe In A Thing Called Love (Solo Ver ). Lyrics for acoustic guitar and electric guitar. Tablatures and chords are parodies/interpretations of the original songs. You may use it for private study, scholarship, research or language learning purposes only