>
 >
I Believe In A Thing Called Love Correct

I Believe In A Thing Called Love Correct Guitar Tabs

Darkness - I Believe In A Thing Called Love Correct chords, tabs, tablatures, lyrics

Guitar lessons | Add/correct | Request | Top 50 tabs Artists:  A B C D E F G H I J K L M N O P Q R S T U V W X Y Z 0-9

I Believe In A Thing Called Love Correct Guitar Tabs – Darkness

CD, Sheet music, Poster

Do you like I Believe In A Thing Called Love Correct? Share with your friends now
Tabs
h  = hammer on
p  = pull of
b  = bend up
r  = release bend
s  = slide
~  = vibrato
PM = Palm Mute
AH = Artificial Harmonic
/  = Slide up
  = Slide down


Intro/Verse:
e--------------------------------------------|
B--------------------------------------------|
G-----2-2-4-4--4-4------4-4--2-2-------------| X 3
D--4--2-2-4-4--4-4-2-2--4-4--2-2-------------|
A--4--0-0-2-2--2-2-2-2--2-2--0-0----0-2-4----|
E--2---------------0-0-----------4~-------0--|

Then:
|--------------------------------------------|
|--------------------------------------------|
|-----2-2-4-4--4-4------4-4--2-2-------------|
|--4--2-2-4-4--4-4-2-2--4-4--2-2-------------|
|--4--0-0-2-2--2-2-2-2--2-2--0-0----0--------|
|--2---------------0-0-----------4~---4-2-0--|


Bridge:
|---------------------------------|
|---------------------------------|
|---------------------------------| X 2
|--2--4----4-4-4-4-4-4-4-4-4-4-4--|
|--2--4----4-4-4-4-4-4-4-4-4-4-4--|
|--0--2-PM-2-2-2-2-2-2-2-2-2-2-2--|

Then:
|----------0---------------------------------------------|
|----------0---------------------------------------------|
|-------------2--3--3----4-4-4-4-4-4-4-4-4-4-4-4-4-4-----|
|--2--4--4----2--3--3----4-4-4-4-4-4-4-4-4-4-4-4-4-4-----|
|--2--4-------0--1--1-PM-2-2-2-2-2-2-2-2-2-2-2-2-2-2-----|
|--0--2----------------------------------------------12-|


Chorus:
|----------------------------------|
|----------------------------------|
|--------2-------------4----4------| X 3
|--------2------4------4----4------|
|--------0------4----0-2--4-2------|
|--0-2-4----4-0-2--4----------(4)--|
			      
Then:
|---------------------------|
|---------------------------|
|---------------------------|
|----------------------7-7--|
|--4--4--4-2-4-5---5---5-5--|
|---------------------------|


Solo 1:
|--12----12------12-----------|
|--12b14----(14)----(14)r12~--|
|-----------------------------|
|-----------------------------|
|-----------------------------|
|-----------------------------|

|-16b17r16-12---------------------------|
|-------------------------------15-b-17-|
|-------------13-13b14r13---------------|
|-------------------------14~----------|
|---------------------------------------|
|---------------------------------------|


Verse variation:
|-----|--------------------------|------------------------|
|-----|--------------------------|------------------------|
|-----|----4-4--2-2--------------|----4-4--2-2------------|
|--4--|-2--4-4--2-2------------4-|-2--4-4--2-2------------|
|--4--|-2--2-2--0-0----0-2-4---4-|-2--2-2--0-0----0-------|
|--2--|-0-----------4~-------0-2-|-0-----------4~---4-2-0-|


-Bridge

-Chorus


Solo 2:
|-----------------------7---7-----7------------|
|--5---5---5-5---5-5----7b9---(9)---(9)b7-5h7--|
|--7b9-7b9---7b9---7b9-------------------------|
|----------------------------------------------|
|----------------------------------------------|
|----------------------------------------------|

|-----------------------------------------------------------0-------------|
|-5-----------------------------------------------------------0-----------|
|----8--6--------------------------------------------------------1--1-2-4-|
|----------9--6-7-9-------------------------------------------------------|
|---------------------9s11--11--11-9-7---7s9--9--9-11-9-7-7---------------|
|--------------------------------------9----------------------------------|

|------------------------------9---------9------|
|--10----10-----10--------9------9--9------9----|
|--12b14-12b14--12b14/14-11b13-----11b13----11-|
|-----------------------------------------------|
|-----------------------------------------------|
|-----------------------------------------------|

|--9p7--9p7--------------------------------|
|-----9----9-7h9p7-------------------------|
|------------------9p6-9-9--11-9-----9-----|
|--------------------------------11----11--|
|------------------------------------------|
|------------------------------------------|

|---------------------------------------------------|
|--------------------------9--------99-99-10-12-----|
|--------------------9-----9----/9--99-99-9--14b16--|
|-------------9------9-11----11---------------------|
|--9s11-11-11---11-9--------------------------------|
|---------------------------------------------------|


-Bridge


Funky chorus (Clean):	     Then:
|----------------------|     |----------------------|
|--------------9--9-7--|     |--------------9--9-7--|
|--9---6---8---9--9-9--| X 2 |--9---6---8---9--9-9--|
|--9---9---9-----------|     |--9---9---9-----------|
|----------------------|     |--------7---7---7-----|
|----------------------|     |----------------------|

(Distortion)
|-----------------------------|
|-----------------------------|
|--6--6--6-4-6-7--7-7--(7-7)--|
|--6--6--6-4-6-7--7-7--(7-7)--|
|--4--4--4-2-4-5--5-5--(5-5)--|
|-----------------------------|
		       

Solo 3:
|----------------12----------------------------|
|--15b17r15-b-17----15p12----------------------|
|-------------------------15h16p15-12-14b16-12-|
|----------------------------------------------|
|----------------------------------------------|
|----------------------------------------------|

		       AH	       PM PM PM PM PM PM	 PM PM
|-------------------------------------------------------------------------|
|-------------------------------------------------------------------------|
|-------------------------------------------------------------------------|
|----------12----------12----------12--14-12------------------------------|
|-14p12-14----14p12-14----14p12-14-----------14-13-12-10-12--10-----------|
|---------------------------------------------------------------12-10-12-|


|--0-4p0-0-5p0-0-7p0-0-9p0-0-7p0-9p0-11p0-9p0-11p0-12p0--|
|--------------------------------------------------------|
|--------------------------------------------------------|
|--------------------------------------------------------|
|--------------------------------------------------------|
|--------------------------------------------------------|


|--14p0-12p0-14p0-16p0-17p0-0-16p0-0-19p0-0-16p0-0-17p0-16s17--|
|--------------------------------------------------------------|
|--------------------------------------------------------------|
|--------------------------------------------------------------|
|--------------------------------------------------------------|
|--------------------------------------------------------------|


|--22b24-(24)(24)(24)(24)(23)b24-------|
|--------------------------------------|
|---------------------------------14~--|
|--------------------------------------|
|--------------------------------------|
|--------------------------------------|


Chorus (chords):	    AH
|------------------------------|
|------------------------------|
|--------2-----------2-4--6----| X 2
|--2-4-6-2--6-2-4--6-2-4--6----|
|--2-4-6-0--6-2-4--6-0-2--4-2--|
|--0-2-4----4-0-2--4-----------|
						      AH   AH
|------------------------------|------------------------------|
|------------------------------|------------------------------|
|--------2-----------2-4--6----|--------2-----------2---------|
|--2-4-6-2--6-2-4--6-2-4--6----|--2-4-6-2--6-2-4--6-2---------|
|--2-4-6-0--6-2-4--6-0-2--4-2--|--2-4-6-0--6-2-4--6-0-2--4-2--|
|--0-2-4----4-0-2--4-----------|--0-2-4----4-0-2--4-----------|


Outro:
|-----------------------------------------------|
|-----15b17~-12h15p12-11h14p11-10h13p10-9h12p9--|
|-----------------------------------------------|
|--2--------------------------------------------|
|--2--------------------------------------------|
|--0--------------------------------------------|

		   AH AH
|-------------------------------------|
|--8h11p8-8h11s20--17-17--------------|
|-------------------------------------|
|-------------------------///---2--|
|-------------------------///---2--|
|-------------------------///---0--|





Comments


Popular Darkness tabs & chords
I Believe In A Thing Called Love Bass Tabs
Christmas Time 1 Chords
Friday Night 1 Tabs
Giving Up Tabs
Grief Hammer 1 Tabs
Growing On Me 8 Tabs
I Believe In A Thing Called Love 7 Tabs
Love Is Not The Answer Tabs
Love Is Only A Feeling 2 Tabs
One Way Ticket 3 Tabs


Song lyrics



↑ Back to top | Tablatures and chords are parodies/interpretations of the original songs. You may use it for private study, scholarship, research or language learning purposes only
© 2014 AZChords.com Contact us | Privacy policy | DMCA | Add/correct tabs | Request tabs | Top 50 tabs