» » »

I Believe In A Thing Called Love 2nd Tabs (ver.1)

Artists:  A B C D E F G H I J K L M N O P Q R S T U V W X Y Z # 

I Believe In A Thing Called Love 2nd Tabs (ver.1)

Darkness
Rating:
0/5 (0 votes)

Tabs too difficult? Try these video lessons and learn fast.
                e--------------------------------------------------------------------
b---------------12----12---------------------------------------------
g--9~-----11b13----13----13~---9-8-6-4-------------------------------
d---------------------------------------6/7-7-9----------------------
a-----------------------------------------------11/9/7h9-9-9--11-9-7-
e--------------------------------------------------------------------

e-------------------------------------------9p7---7------------------
b-----------------------------------------------9---9p7-9p7-7/5---5--
g-----9-----------------14-14-14-14-14-14b----------------------6---6
d-------9--6-6/7-9-9-------------------------------------------------
a-7------------------------------------------------------------------
e--------------------------------------------------------------------

e--------------------------------------------------------------------
b----------------------------------9--10--12--12---------------------
g-----------------------------9----9--11--13--13---------------------
d------------------------------9-------------------------------------
a--11-11--11/9/7 h9---11-9-7-----------------------------------------
e--------------------------------------------------------------------

when it gets tot he hammer on and pull off part on the 9 and 7 frets 
on the b and e string, you may have to repeat the hammer ons and pull
offs more to get it right. there is also a way u can play that part so
it fits in with the 14th fret bend and the next notes on the 11th fret
after that. its on the g d and a string about the 14th, 13th, 12th and
10th frets if ya follow that. i cba to work out that way.
            
Tabs too difficult? Try these video lessons and learn fast.




comments powered by Disqus
↑ Back to top | Tablatures and chords are parodies/interpretations of the original songs. You may use it for private study, scholarship, research or language learning purposes only