>
 >
I Believe In A Thing Called Love 11

I Believe In A Thing Called Love 11 Guitar Tabs

Darkness - I Believe In A Thing Called Love 11 chords, tabs, tablatures, lyrics

Guitar lessons | Add/correct | Request | Top 50 tabs Artists:  A B C D E F G H I J K L M N O P Q R S T U V W X Y Z 0-9

I Believe In A Thing Called Love 11 Guitar Tabs – Darkness

CD, Sheet music, Poster

Do you like I Believe In A Thing Called Love 11? Share with your friends now
Tabs
The Darkness (I Believe in a Thing Called Love)                         

Put text into Courier New (Size 10)
Main Guitar Part


Intro/Verse
                                                                           
E||-----------------------|------------------------|----------------------|
B||-----------------------|------------------------|----------------------|
G||-----------------------|------------------------|----------------------|
D||-------x----x--2----4--|--4----x----x--4--4-----|---------4--4------2--|
A||--4----x----x--0----2--|--2----x----x--2--2--2--|--2------2--2------0--|
E||--2----x----x----------|-------x----x--------0--|--0-------------------|


                                                                            
------------------------||------------------------|------------------------|
------------------------||------------------------|------------------------|
------------------------||*-----------------------|------------------------|
--2---------------------||*-------x----x--2----4--|--4----x----x--4--4-----|
--0---------0--2--4-----||---4----x----x--0----2--|--2----x----x--2--2--2--|
-------4~------------0--||---2----x----x----------|-------x----x--------0--|


                                                                           
----------------------|-------------------------||------------------------|
----------------------|-------------------------||------------------------|
----------------------|------------------------*||------------------------|
---------4--4------2--|--2---------------------*||--2---------------------|
--2------2--2------0--|--0---------0--2--4------||--0---------0-----------|
--0-------------------|-------4~------------0---||-------4~------4--2--0--|


Bridge

  E        F#5                                         E        F#5            
-----0-------------------|--------------------------|-----0-------------------|
-----0-------------------|--------------------------|-----0-------------------|
-----1-------------------|--------------------------|-----1-------------------|
--2-----2----------------|--------------------------|--2-----2----------------|
--2-----2--4----4--4--4--|--4--4--4--4--4--4--4--4--|--2-----2--4----4--4--4--|
--0-----0--2----2--2--2--|--2--2--2--2--2--2--2--2--|--0-----0--2----2--2--2--|


                             E        F#5                                
--------------------------|-----0----------0--------|-------------------|
--------------------------|-----0----------0--------|-------------------|
--------------------------|-----1-------------------|-------------------|
--------------------------|--2-----2-------------2--|--------3----------|
--4--4--4--4--4--4--4--4--|--2-----2--4-------4--0--|--------1----------|
--2--2--2--2--2--2--2--2--|--0-----0--2-------2-----|-------------------|


                                                      Chorus
                                                                               
--------------------------|-------------------------|-------------------------|
--------------------------|-------------------------|-------------------------|
--------------------------|-------------------------|-------------------------|
--4--4--4--4--4--4--4--4--|--4--4--4--4--4--4-------|-----------2-------------|
--2--2--2--2--2--2--2--2--|--2--2--2--2--2--2-------|-----------0----------4--|
--------------------------|--------------------7/---|--0--2--4-------4--0--2--|





                                                                          
-----------------------|-------------------------|-----------------------|
-----------------------|-------------------------|-----------------------|
-----------------------|-------------------------|-----------------------|
----------4----6-------|-----------2-------------|----------4----6-------|
-------0--2----4--2~---|-----------0----------4--|-------0--2----4--2~---|
----4------------------|--0--2--4-------4--0--2--|----4------------------|


                                                                           
-------------------------|-----------------------|------------------------|
-------------------------|-----------------------|------------------------|
-------------------------|-----------------------|------------------------|
-----------2-------------|----------4----6-------|--6----6----6--4/-6--7--|
-----------0----------4--|-------0--2----4--2~---|--4----4----4--2/-4--5--|
--0--2--4-------4--0--2--|----4------------------|------------------------|


1st solo
                                                                            
---------------------|--12------12------12--------|----------16r-----------|
---------------------|--12b---------12b-----12r---|----------------17------|
---------------------|----------------------------|--------------------16--|
------7------7--7----|----------------------------|------------------------|
------5------5--5----|----------------------------|------------------------|
---------------------|----------------------------|------------------------|


                                             Bass and drums only here
                                                               
----------------------|--------------------|------------------|
----------------------|--------14b---------|------------------|
--13r-----------------|--------------------|------------------|
----------14----------|--------------------|------------------|
----------------------|--------------------|------------------|
----------------------|--------------------|------------------|


                                                                   
------------------|----------------------|------------------------|
------------------|----------------------|------------------------|
------------------|----------------------|------------------------|
------------------|---------4--4------2--|--2---------------------|
------------------|--2------2--2------0--|--0---------0--2--4-----|
------------------|--0-------------------|-------4~------------0--|


      Bass and drums again
                                                              
-------------------|------------------|----------------------|
-------------------|------------------|----------------------|
-------------------|------------------|----------------------|
-------------------|------------------|---------4--4------2--|
--4/---------------|------------------|--2------2--2------0--|
--2/---------------|------------------|--0-------------------|


Bridge

                           E        F#5                                       
------------------------|-----0-------------------|--------------------------|
------------------------|-----0-------------------|--------------------------|
------------------------|-----1-------------------|--------------------------|
--2---------------------|--2-----2----------------|--------------------------|
--0---------0-----------|--2-----2--4----4--4--4--|--4--4--4--4--4--4--4--4--|
-------4~------4--2--0--|--0-----0--2----2--2--2--|--2--2--2--2--2--2--2--2--|




  E        F#5                                         E        F#5            
-----0-------------------|--------------------------|-----0----------0--------|
-----0-------------------|--------------------------|-----0----------0--------|
-----1-------------------|--------------------------|-----1-------------------|
--2-----2----------------|--------------------------|--2-----2-------------2--|
--2-----2--4----4--4--4--|--4--4--4--4--4--4--4--4--|--2-----2--4-------4--0--|
--0-----0--2----2--2--2--|--2--2--2--2--2--2--2--2--|--0-----0--2-------2-----|


                                                                         
-------------------|--------------------------|-------------------------|
-------------------|--------------------------|-------------------------|
-------------------|--------------------------|-------------------------|
--------3----------|--4--4--4--4--4--4--4--4--|--4--4--4--4--4--4-------|
--------1----------|--2--2--2--2--2--2--2--2--|--2--2--2--2--2--2-------|
-------------------|--------------------------|--------------------7/---|


Chorus
                                                                            
-------------------------|-----------------------|-------------------------|
-------------------------|-----------------------|-------------------------|
-------------------------|-----------------------|-------------------------|
-----------2-------------|----------4----6-------|-----------2-------------|
-----------0----------4--|-------0--2----4--2~---|-----------0----------4--|
--0--2--4-------4--0--2--|----4------------------|--0--2--4-------4--0--2--|


                                                                          
-----------------------|-------------------------|-----------------------|
-----------------------|-------------------------|-----------------------|
-----------------------|-------------------------|-----------------------|
----------4----6-------|-----------2-------------|----------4----6-------|
-------0--2----4--2~---|-----------0----------4--|-------0--2----4--2~---|
----4------------------|--0--2--4-------4--0--2--|----4------------------|


                                                 2nd solo
                                                                            
------------------------|-----------------------|--------------------------|
------------------------|-----------------------|--5--5--5--5--5--5--5--7b-|
------------------------|-----------------------|--7b-7b-7b-7b-7b-7b-7b----|
--6----6----6--4/-6--7--|----7--7--7----7--7----|--------------------------|
--4----4----4--2/-4--5--|----5--5--5----5--5----|--------------------------|
------------------------|-----------------------|--------------------------|


                                                                           
----7-----7-------------|--0----0----0----0----|--------------------------|
-------7b----7r---5--7--|--5~---4~---2~---0----|--------------------------|
------------------------|-----------------4~---|--1----2----4----4~-------|
------------------------|----------------------|--------------------------|
------------------------|----------------------|--------------------------|
------------------------|----------------------|--------------------------|


                                                                         
------------------------|------------------------|-------0----0----0----|
------------------------|------------------------|-------5~---4~---0----|
------------------------|------------------------|-----------------4~---|
-4h6~--6~---6~-4--2-----|-2h4~---4~---4~-6--4--2-|--2-------------------|
---------------------4--|------------------------|----------------------|
------------------------|------------------------|----------------------|


                                           


             
--------------------------|----------------------------|
--------------------------|--10----10------10--10--9---|
--1----2----4----4~-------|--12b---12b-----12b-12b-11b-|
--------------------------|----------------------------|
--------------------------|----------------------------|
--------------------------|----------------------------|


                                                                 
----9-----------9--------|--------------------------------------|
-------9--9--------------|--14-12-9-14-12-9---------------------|
----------11b------11r---|------------------11-9-11h9-----9--9--|
-------------------------|----------------------------11--------|
-------------------------|--------------------------------------|
-------------------------|--------------------------------------|


                                                                               
--------------------------|--------------------------|------------------------|
--------------------------|--------------------------|------------------------|
----11--9--------9--------|--------------------------|----------9-------------|
-----------11~------11----|--------------9--------9--|----11---------11----9--|
--------------------------|--11----11-------11-------|------------------------|
--------------------------|--------------------------|------------------------|


                                                              
-----------------------------|-------------------------------|
--------9------9------9------|--9----10----12----12----12/---|
--------9------9------9------|--9----9-----11----11----11/---|
--11-------11-----11-----11--|-------------------------------|
-----------------------------|-------------------------------|
-----------------------------|-------------------------------|

Bridge

  E        F#5                                         E        F#5            
-----0-------------------|--------------------------|-----0-------------------|
-----0-------------------|--------------------------|-----0-------------------|
-----1-------------------|--------------------------|-----1-------------------|
--2-----2----------------|--------------------------|--2-----2----------------|
--2-----2--4----4--4--4--|--4--4--4--4--4--4--4--4--|--2-----2--4----4--4--4--|
--0-----0--2----2--2--2--|--2--2--2--2--2--2--2--2--|--0-----0--2----2--2--2--|


                             E        F#5                                
--------------------------|-----0----------0--------|-------------------|
--------------------------|-----0----------0--------|-------------------|
--------------------------|-----1-------------------|-------------------|
--------------------------|--2-----2-------------2--|--------3----------|
--4--4--4--4--4--4--4--4--|--2-----2--4-------4--0--|--------1----------|
--2--2--2--2--2--2--2--2--|--0-----0--2-------2-----|-------------------|


                                                     Middle 8
                                                                          
--------------------------|-------------------------|--------------------|
--------------------------|-------------------------|--------------------|
--------------------------|-------------------------|----9------8--------|
--4--4--4--4--4--4--4--4--|--4--4--4--4--4-4--------|----9------9--------|
--2--2--2--2--2--2--2--2--|--2--2--2--2--2-2--------|--------------------|
--------------------------|--------------------7/---|--------------------|


         



                                                          
----------------------|--------------------|----------------------|
---------9----9--7----|----9---------------|---------9----9--7----|
--8------9----9--9----|----9------8--------|--8------9----9--9----|
--9-------------------|-----------9--------|--9-------------------|
----------------------|--------------------|----------------------|
----------------------|--------------------|----------------------|


                                                                     
--------------------|----------------------|------------------------|
----9---------------|---------9----9--7----|------------------------|
----9------8--------|--8------9----9--9----|------------------------|
-----------9--------|--9-------------------|--6----6----6--4/-6--7--|
--------------------|----------------------|--4----4----4--2/-4--5--|
--------------------|----------------------|------------------------|


               Solo number 3
                                                      
----------------------|------------12----------------|
----------------16b---|---------------15h12/11-12h11-|
----------------------|------------------------------|
------7------7--7-----|------------------------------|
------5------5--5-----|------------------------------|
----------------------|------------------------------|


                                                                              
----------------------------------|------------------------------------------|
----------------------------------|------------------------------------------|
--14h12-14b-12~---------------12b-|------------12b-----------12b-------------|
--------------------14-12-14------|--14-12-14------14-12-14------14-13-12----|
----------------------------------|---------------------------------------14-|
----------------------------------|------------------------------------------|


                                                                  
------------------------------|--4h0-0-5h0-0-7h0-0-9h0-0-7h0-9h0-|
------------------------------|----------------------------------|
------------------------------|----------------------------------|
------------------------------|----------------------------------|
--13--12--10b-----------------|----------------------------------|
--------------12-10-12--------|----------------------------------|


                                          
--10h0-9h0-10h0-12h0-14h0-12h0-14h0-16h0-|
-----------------------------------------|
-----------------------------------------|
-----------------------------------------|
-----------------------------------------|
-----------------------------------------|


                                                                          
--17h0-0-16h0-0-17h0-0-16h0-0-17h0-19h0-|--21h0-19h0-21h0-22-0-22b-------|
----------------------------------------|--------------------------------|
----------------------------------------|--------------------------------|
----------------------------------------|--------------------------------|
----------------------------------------|--------------------------------|
----------------------------------------|--------------------------------|

                                                                           
-------------------------|-----------------------|-------------------------|
-------------------------|-----------------------|-------------------------|
-------------------------|-----------------------|-------------------------|
-----------2-------------|----------4----6-------|-----------2-------------|
-----------0----------4--|-------0--2----4--2~---|-----------0----------4--|
--0--2--4-------4--0--2--|----4------------------|--0--2--4-------4--0--2--|


                                                                          
-----------------------|-------------------------|-----------------------|
-----------------------|-------------------------|-----------------------|
-----------------------|-------------------------|-----------------------|
----------4----6-------|-----------2-------------|----------4----6-------|
-------0--2----4--2~---|-----------0----------4--|-------0--2----4--2~---|
----4------------------|--0--2--4-------4--0--2--|----4------------------|


                                                                        
-------------------------|-----------------------|---------------------|
-------------------------|-----------------------|---------------15b---|
-------------------------|-----------------------|---------------------|
-----------2-------------|----------4----6-------|--2------------------|
-----------0----------4--|-------0--2----4--2~---|--2------------------|
--0--2--4-------4--0--2--|----4------------------|--0------------------|


                                                                      
--------------------------|------------------------------------------|
--------------12h15h12/11h|--14h11/10h13h10/9h12h9/8h11h8/7h10h7/-17-|
--------------------------|------------------------------------------|
--------------------------|------------------------------------------|
--------------------------|------------------------------------------|
--------------------------|------------------------------------------|


                                                     
---0----------------|-------------------|----------||
---0--5ph-----------|-------------------|----------||
--------------------|-------------------|----------||
--------------------|------2------------|----------||
--------------------|------2------------|----------||
--------------------|------0------------|----------||





Comments


Popular Darkness tabs & chords
Christmas Time Chords
I Believe In A Thing Called Love Chords
Bareback Tabs
I Believe In A Thing Called Love 6 Tabs
I Believe In A Thing Called Love Correct Tabs
Knockers 1 Tabs
Love Is Not The Answer Tabs
Love Is Only A Feeling 3 Tabs
Living Each Day Blind Ukulele
Love Is Only A Feeling Ukulele


Song lyrics



↑ Back to top | Tablatures and chords are parodies/interpretations of the original songs. You may use it for private study, scholarship, research or language learning purposes only
© 2014 AZChords.com Contact us | Privacy policy | DMCA | Add/correct tabs | Request tabs | Top 50 tabs