» » »

Darkness, I Believe In A Thing Called Love Bass tabs (ver.1)

Artists:  A B C D E F G H I J K L M N O P Q R S T U V W X Y Z # 

I Believe In A Thing Called Love Bass tabs (ver.1)

Darkness Tabs
Rating:
0/5 (0 votes)
I Believe In A Thing Called Love lessons Tabs too difficult? Try these video lessons and learn fast
                The Darkness - I Believe in a Thing Called Love.

the rythm may not be perfect here, but all the notes are 100%!

INTRO/VERSE
G-------------------------------------------------------------------------
D-------------------------------------------------------------------------
A---------2-2--2-2----2-2-----------2-4-----------------------------------
E---2--5----------0-0------5-5--4-5-----0--------------------------------- x3

G-------------------------------------------------------------------------
D-------------------------------------------------------------------------
A---------2-2--2-2----2-2-------------------------------------------------
E---2--5----------0-0------5-5--4-5-4-2-0---------------------------------


PRE CHORUS
G-------------------------------------------------------------------------
D-------------------------------------------------------------------------
A--------------------------------------------------------0--22222222222/14
E--0-2-22222222222--0-2-22222222222--0-2-2222-------4-------------------


CHORUS x3
G-------------------------------------------------------------------------
D-------------------------------------------------------------------------
A---------------------2--4-2----------------------------------------------
E-0-2-4-5--4-2-2--4-5-----------------------------------------------------

on 4th time
G-------------------------------------------------------------------------
D-------------------------------------------------------------------------
A--4--4--4-2-0-5---7-7\0--------------------------------------------------
E-------------------------------------------------------------------------


INTRO
G-------------------------------------------------------------------------
D-------------------------------------------------------------------------
A---------2-2--2-2----2-2-----------2-4-----------------------------------
E---2--5----------0-0------5-5--4-5-----0---------------------------------


VERSE
G-------------------------------------------------------------------------
D-------------------------------------------------------------------------
A-----------22222222-2----2222---------2-0--------------------------------
E-222222-55-----------000------555-4-5-----0------------------------------ x2

G-------------------------------------------------------------------------
D-------------------------------------------------------------------------
A-----------22222222-2----2222--------------------------------------------
E-222222-55-----------000------555-4-5-4-2-0------------------------------


PRE CHORUS
G-------------------------------------------------------------------------
D-------------------------------------------------------------------------
A-------------------------------------------------------------------------
E--0-2-22222222222--0-2-22222222222--0-2-2222-----------------------------

G-------------------------------------------------------------------------
D-------------------------------------------------------------------------
A----0--2222222222/14-14-14-14-14-14-14-14--------------------------------
E-4-----------------------------------------------------------------------


CHORUS
G-------------------------------------------------------------------------
D-------------------------------------------------------------------------
A---------------------2--4-2----------------------------------------------
E-0-2-4-5--4-2-2--4-5----------------------------------------------------- x3

G-------------------------------------------------------------------------
D-------------------------------------------------------------------------
A--4--4--4-2-0-5---7-7\0--------------------------------------------------
E------------------------------------------------------------------------- 


BRIDGE
G-------------------------------------------------------------------------
D-------------------------------------------------------------------------
A---------2-2--2-2----2-2-----------2-4-----------------------------------
E---2--5----------0-0------5-5--4-5-----0--------------------------------- x2

G-------------------------------------------------------------------------
D-------------------------------------------------------------------------
A-----------22222222-2-/777\-2222---------4-0-----------------------------
E-222222-55-----------------------555-4-5-----0---------------------------

G-------------------------------------------------------------------------
D-------------------------------------------------------------------------
A-----------22222222-2-/777\-2222---------2-4-----------------------------
E-222222-55-----------------------555-4-5-----0---------------------------


PRE CHORUS
G-------------------------------------------------------------------------
D-------------------------------------------------------------------------
A-------------------------------------------------------------------------
E--0-2-22222222222--0-2-22222222222--0-2-2222-----------------------------

G-------------------------------------------------------------------------
D-------------------------------------------------------------------------
A----0--2222222222/14-14-14-14-14-14-14-14--------------------------------
E-4-----------------------------------------------------------------------

*PAUSE*

G-------------------------------------------------------------------------
D-------------------------------------------------------------------------
A--4--4--4-2-4-5----7-7\0-------------------------------------------------
E-------------------------------------------------------------------------


CHORUS x6
G-------------------------------------------------------------------------
D-------------------------------------------------------------------------
A---------------------2--4-2----------------------------------------------
E-0-2-4-5--4-2-2--4-5-----------------------------------------------------

G-------------------------------------------------------------------------
D-------------------------------------------------------------------------
A-------------------------------------------------------------------------
E-0-----0-----------------------------------------------------------------
            
Submit corrections

comments powered by Disqus
↑ Back to top | Darkness Bass for I Believe In A Thing Called Love. Lyrics for acoustic guitar and electric guitar. Tablatures and chords are parodies/interpretations of the original songs. You may use it for private study, scholarship, research or language learning purposes only