» » »

Darkness, I Believe In A Thing Called Love Tabs (ver.1)

Artists:  A B C D E F G H I J K L M N O P Q R S T U V W X Y Z # 

I Believe In A Thing Called Love Tabs (ver.1)

Darkness Tabs
 Rating:
4/5 (4 votes)
I Believe In A Thing Called Love lessons Tabs too difficult? Try these video lessons and learn fast
                PROPS GO TO: jenksey

This is all in standard tuning.
 you will have to work out the timing by your self
v=Vibrato
pm=Palm mute
 
Main riff/verse:
|------------------------------------------|
|------------------------------------------|
|-----2-2-4-4--4-4-----4-4-2-2-------------|
|--4--2-2-4-4--4-4-2-2-4-4-2-2-------------|
|--4--0-0-2-2--2-2-2-2-2-2-0-0----0-2-4----|
|--2---------------0-0---------4v-------0--|
 
On last time before Bridge replace with:
|------------------------------------------|
|------------------------------------------|
|-----2-2-4-4--4-4-----4-4-2-2-------------|
|--4--2-2-4-4--4-4-2-2-4-4-2-2-------------|
|--4--0-0-2-2--2-2-2-2-2-2-0-0----0--------|
|--2---------------0-0---------4v---4-2-0--|
 

Bridge:
|--------------------------------|
|--------------------------------|
|--------------------------------|
|--2--4----4-4-4-4-4-4-4-4-4-4-4-|
|--2--4----4-4-4-4-4-4-4-4-4-4-4-|
|--0--2-pm-2-2-2-2-2-2-2-2-2-2-2-|
 
Twice, then:
|---------------------------|
|---------------------------|
|-----2-3-4-4-4-4-4-4-4-4-4-|
|-2-4-2-3-4-4-4-4-4-4-4-4-4-|
|-2-4-0-1-2-2-2-2-2-2-2-2-2-|
|-0-2-----------------------|
 

Chorus:
(I think it's single notes at that speed.
Dan uses a very heavy string gauge which is why
it sounds like full chords.)
|-----------------------------|
|-----------------------------|
|-----------------------------|
|-----------------------------|
|--------0-----------0-2-4-2--|
|--0-2-4---4-0---2-4----------|
 
Three times then:
|---------------------|
|---------------------|
|---------------------|
|-----------------7-7-|
|-4-4-4-2-4-5--5--5-5-|
|---------------------|
 

First solo
--12----12------12-------------
--12b14----(14)----(14)b12-12--
-------------------------------
-------------------------------
-------------------------------
-------------------------------
 
-16b17b16-p-12--------------10---b--12------
---------------9b10b9-----------------------
----------------------9---------------------
--------------------------------------------
--------------------------------------------
--------------------------------------------
 
 
 
 
 
Middle solo
----------------------7-----7-----7---------
---5---5---5---5--7b9---(9)---(9)---(9)b7---
-7b9-7b9-7b9-7b9----------------------------
--------------------------------------------
--------------------------------------------
--------------------------------------------
 
--------------------------------------------
--5-----------------------------------------
------8--6----------------------------------
------------9-7-7s9-9-7-7-7-----------------
----------------------------9p7h9-9-9s11-9-7
--------------------------------------------
 
----------------------
----------------------
--9--6----------------
--------9--6-7-7s9-9--
----------------------
----------------------
 
---------------------------------9---------9--
-----10-----10----10----9-----9----9----9----9
--12b14--12b14-12b14-11b13-11b13-----11b13----
----------------------------------------------
----------------------------------------------
----------------------------------------------
 
--9p7--9p7----------------------------------
-----9----9-p7h9p7--------------------------
-------------------6-9-9-9-11----9-11-------
------------------------------11------11----
--------------------------------------------
--------------------------------------------
 
--------------------------------------------
----------------------------9-----9-----9---
-----------9---9-----9--11b13-11b13b13-11---
--------------------------------------------
--11-11-11-11-7-7--7------------------------
--------------------------------------------     the solo may not be 100% correct but it is close enough for me
 
---------------------
------9----10----12--
--11b13-12b14-14b16--
---------------------
---------------------
---------------------
 
Song Order:
Main Riff (muffled)
Main Riff (verse)
Bridge
Chorus
Solo 1
Main Riff (verse)
Bridge
Chorus
Solo 2
Bridge
Chorus (no guitar)
Solo 3
Play Chorus riff to end
 well thats it enjoy
            
Submit corrections

comments powered by Disqus
↑ Back to top | Darkness Tabs for I Believe In A Thing Called Love. Lyrics for acoustic guitar and electric guitar. Tablatures and chords are parodies/interpretations of the original songs. You may use it for private study, scholarship, research or language learning purposes only