» » »

Darkness, How Dare You Call This Love Tabs (ver.1)

Artists:  A B C D E F G H I J K L M N O P Q R S T U V W X Y Z # 

How Dare You Call This Love Tabs (ver.1)

Darkness Tabs
Rating:
5/5 (4 votes)
How Dare You Call This Love lessons Tabs too difficult? Try these video lessons and learn fast
                Only the rhythm guitar as Dan Hawkins would play it
Verse#1
e---------------------------------------------------------------------------
b----3-----0----0-3----3-----0----0-3----3----------------------------------
g---0-0---2-2----0----0-0---2-2----0----0-0-------5--5-5-5-5-5-5-5-5-5------
d--------2-----2-----------2-----2------------2-4-5--5-5-5-5-5-5-5-5-5------
a--2----0-----3------2----0-----3------2---2--2-4-3--3-3-3-3-3-3-3-3-3------
e-3-----------------3-----------------3-------0-2---------------------------

Bridge#1
e----------3-3-2-2----------------------------------------------------------
b-5--5-5---3-3-3-3-5--5-5---------------3---3----3---3----------------------
g-5--5-5-5-0-0-2-2-5--5-5-5-----7-7----5-5---5--5-5---5---------------------
d-5--5-5-5-0-0-0-0-5--5-5-5-5-5-7-7---5----5---5----5----0-2----------------
a-3--3-3-3-2-2-----3--3-3-3-5-5-5-5--3----3---3----3----3-------------------
e----------3-3--------------3-3---------------------------------------------

Chorus #1
e-------------------------------------------------------------------------2-
b-------------------------------------------------------------------------3-
g-----0-0-----0-0-----0-0-5-5-0-0-----0-0-----0-0-----0-0-0-0-0-0-0-0-----2-
d-5-5-5-5-5-5-5-5-5-5-5-5-5-5-5-5-5-5-5-5-5-5-5-5-5-5-5-5-5-5-5-5-5-5-5-5-0-
a-5-5-----5-5-----2-2-----3-3-----5-5-----5-5-----2-2-----3-3-3-3-3-3-5-5---
e-3-3-----2-2-----0-0-------------3-3-----2-2-----0-0-----------------3-3---

e-2-------------------------------------------------------------------------
b-3-2---5------0-5-3---------------------2~~--------------------------------
g-2-2---5------0-7-3---------------0-2/4------------------------------------
d-0-2-2-5------2-7-5---------0-2-4------------------------------------------
a---0-2-3------2-5-3---0-2-4------------------------------------------------
e-----0---12/x-0------3-----------------------------------------------------

Verse #2
e---------------------------------------------------------------------------
b-3----0-----3-----3-----0-----1-----3---3----------------------------------
g-0----2-----0-----0-----2-----0-----0--0-0--5--5-5-5-5-5-5-5-5-5-----------
d-0----2-----2-----0-----2-----2-----0-------5--5-5-5-5-5-5-5-5-5-----------
a-2----0-----3-----2-----0-----3-----2-----2-3--3-3-3-3-3-3-3-3-3-----------
e-3----------------3-----------------3--------------------------------------

 Bridge#2 (same as first)
e----------3-3-2-2----------------------------------------------------------
b-5--5-5---3-3-3-3-5--5-5---------------3---3----3---3----------------------
g-5--5-5-5-0-0-2-2-5--5-5-5-----7-7----5-5---5--5-5---5---------------------
d-5--5-5-5-0-0-0-0-5--5-5-5-5-5-7-7---5----5---5----5----0-2----------------
a-3--3-3-3-2-2-----3--3-3-3-5-5-5-5--3----3---3----3----3-------------------
e----------3-3--------------3-3---------------------------------------------

Chorus #2
e-------------------------------------------------------------------------2-
b-------------------------------------------------------------------------3-
g-----0-0-----0-0-----0-0-5-5-0-0-----0-0-----0-0-----0-0-0-0-0-0-0-0-----2-
d-5-5-5-5-5-5-5-5-5-5-5-5-5-5-5-5-5-5-5-5-5-5-5-5-5-5-5-5-5-5-5-5-5-5-5-5-0-
a-5-5-----5-5-----2-2-----3-3-----5-5-----5-5-----2-2-----3-3-3-3-3-3-5-5---
e-3-3-----2-2-----0-0-------------3-3-----2-2-----0-0-----------------3-3---

e-2--------------------------------------------9----9----9----9-------------
b-3-2---5------0-5----3---3----3---3----3---3---10---10---10---10-----------
g-2-2---5------0-7---3-3---3--3-3---3--3-3---3----11---11---11---11---------
d-0-2-2-5------2-7--5----5---5----5---5----5--------------------------------
a---0-2-3------2-5-3----3---3----3---3----3---------------------------------
e-----0---12/x-0------------------------------------------------------------

Solo
e---------------------------------------------------------------------------
b---------7-7-7-7-------------------------7-7-7-7-------------------------7-
g---------7-7-7-7-5-5-5-5-5-5-5-5---------7-7-7-7-5-5-5-5-5-5-5-5---------7-
d-5-5-5-5-7-7-7-7-5-5-5-5-5-5-5-5-5-5-5-5-7-7-7-7-5-5-5-5-5-5-5-5-5-5-5-5-7-
a-5-5-5-5-5-5-5-5-3-3-3-3-3-3-3-3-5-5-5-5-5-5-5-5-3-3-3-3-3-3-3-3-5-5-5-5-5-
e-3-3-3-3-------------------------3-3-3-3-------------------------3-3-3-3---

e-------------------2-2-2-2-2-2---------------------------------------------
b-7-7-7-------------3-3-3-3-3-3---------------------------------------------
g-7-7-7-------------2-2-2-2-2-2-5-5-5-5-5-5-5-5-5-5-5-5---------------------
d-7-7-7-2-2-2-2-2-2-0-0-0-0-0-0-5-5-5-5-5-5-5-5-5-5-5-5---------------------
a-5-5-5-2-2-2-2-2-2-------------3-3-3-3-3-3-3-3-3-3-3-3---------------------
e-------0-0-0-0-0-0---------------------------------------------------------

Bribge #3

e-----------------2-2-2-2---------------------------------------------------
b-3-3-3-3-3-3-3-3-2-2-3-3-3-3-3-3-3-3-3-3-------------3---3-----------------
g-5-3-3-5-5-3-3-3-0-0-2-2-5-3-3-5-5-3-3-3-----7-7----5-5---5----------------
d-5-5-5-5-5-5-5-5-0-0-0-0-5-5-5-5-5-5-5-5-5-5-7-7---5----5---0-3~5~---------
a-3-3-3-3-3-3-3-3-2-2-----3-3-3-3-3-3-3-3-5-5-5-5--3----3---3~--------------
e-----------------3-3---------------------3-3-------------------------------

Chorus#3

e---------------------------------------------------------------2-2---------
b---------------------------------------------------------------3-3-2-------
g-------------------5-5-5-5-5-------------------5-5-5-5-5-5-----2-2-2---5---
d-5-5-5-5-5-5-2-2-2-5-5-5-5-5-5-5-5-5-5-5-2-2-2-5-5-5-5-5-5-5-5-0-0-2-2-5---
a-5-5-5-5-5-5-2-2-2-3-3-3-3-3-5-5-5-5-5-5-2-2-2-3-3-3-3-3-3-5-5-----0-2-3---
e-3-3-3-2-2-2-0-0-0-----------3-3-3-2-2-2-0-0-0-------------3-3-------0-----

e---------------------------------------------------------------------------
b-------0-5----3---3--------------------------------------------------------
g-------0-7---3-3---3-------------------------------------------------------
d-------2-7--5----5---------------------------------------------------------
a-------2-5-3----3----------------------------------------------------------
e-12/x--0-------------------------------------------------------------------

Key Change

e---------------------------------------------------------------------------
b---------------------------------------------------------------------------
g-------------------6-6-6-6-6-------------------6-6-6-6-6-6-----8-8-3-5-6---
d-6-6-6-6-6-6-3-3-3-6-6-6-6-6-6-6-6-6-6-6-3-3-3-6-6-6-6-6-6-6-6-8-8-3-5-6---
a-6-6-6-6-6-6-3-3-3-4-4-4-4-4-6-6-6-6-6-6-3-3-3-4-4-4-4-4-4-6-6-6-6-1-3-4---
e-4-4-4-3-3-3-1-1-1-----------4-4-4-3-3-3-1-1-1-------------4-4-------------


             *let ring (cymbal 1, 2, 3)
e------1--------------------------------------------------------------------
b------1--6--4--------------------------------------------------------------
g------1--7--4--------------------------------------------------------------
d------3--7--6-------------------------6-8-8-8-6/---------------------------
a------3--6--4-------------------------6-8-8-8-6/---------------------------
e-13/x-1-------------------------------4-6-6-6-4/---------------------------
            

comments powered by Disqus
↑ Back to top | Darkness Tabs for How Dare You Call This Love. Lyrics for acoustic guitar and electric guitar. Tablatures and chords are parodies/interpretations of the original songs. You may use it for private study, scholarship, research or language learning purposes only