>
 >
Holding My Own

Holding My Own Guitar Tabs

Darkness - Holding My Own chords, tabs, tablatures, lyrics

Guitar lessons | Add/correct | Request | Top 50 tabs Artists:  A B C D E F G H I J K L M N O P Q R S T U V W X Y Z 0-9

Holding My Own Guitar Tabs – Darkness

CD, Sheet music, Poster

Do you like Holding My Own? Share with your friends now
TabsTabs v2Tabs v3
Tuning: Drop D


Intro (Clean, With Delay)

e|--------------0----------|--------------0----------|
b|--------3----------2-----|--------3----------3-----|
g|-----2-----2----------3--|-----2-----2----------2--|
d|--0----------------------|-------------------------|
a|-------------------------|--2----------------------|
D|-------------------------|-------------------------|
                               
|--------------0----------||--------------0--2--0----|
|--------3----------3-----||-----------3-------------|
|-----2-----2----------2--||--0-----0----------------|
|-------------------------||-----0-------------------|
|--0----------------------||-------------------------|
|-------------------------||-------------------------|
____________________________________________________________________


Solo 1 (Distortion):

|-----------------------------|-------------------------------------|
|-----------------------------|-----10-10----10----10-12^(14) ~~~ --|
|--9^(11)--9^(11)^(9)p7-7 ~~~ |-/11-------11----11------------------|
|-----------------------------|-------------------------------------|
|-----------------------------|-------------------------------------|
|-----------------------------|-------------------------------------|


|-10h12-10--9--9---------------------|------------------------------|
|-----------------12--12--10--10--8--|------------------------------|
|------------------------------------|-9^(11)-9^(11)-(11)^9p7-9 ~~~ |
|------------------------------------|------------------------------|
|------------------------------------|------------------------------|
|------------------------------------|------------------------------|

|-------------------------------------------------------------------|
|---------------------(7)-10p7------7-------------------------------|
|-9^(11)^(9)p7h9-9^(11)-------9^(11)--9p7-9^(11)^(9)p7----7--9 ~~~ ^|
|-------------------------------------------------------9-----------|
|-------------------------------------------------------------------|
|-------------------------------------------------------------------|

|-------------------|--------|
|-------------------|--------|
|-----------7 ~~~~~~|~~~~~~\-|
|--9--7--9----------|--------|
|-------------------|--------|
|-------------------|--------|
____________________________________________________________________


Verse (Clean):

|--------------0----------|--------------0----------|
|--------3----------2-----|--------3----------3-----|
|-----2-----2----------3--|-----2-----2----------2--|
|--0----------------------|-------------------------|
|-------------------------|--2----------------------|
|-------------------------|-------------------------|
                               
                            1,3
|--------------0----------||--------------0--2--0----|
|--------3----------3-----||-----------3-----------3-|
|-----2-----2----------2--||--0-----0----------------|
|-------------------------||-----0-------------------|
|--0----------------------||-------------------------|
|-------------------------||-------------------------|

  2,                        4,
|--------------0--2--0----|--------------3--2--0----|
|-----------3-------------|-----------3-------------|
|--0-----0----------------|--0-----0----------------|
|-----0-------------------|-----0-------------------|
|-------------------------|-------------------------|
|-------------------------|-------------------------|


|-------------------|------------------|----------------|--0------|
|-------2--3----2---|--------2-3-2-----|-------0------0-|--3------|
|-----2-----------2-|------2-------2---|-----2------2---|--0------|
|-------------------|----2-----------2-|--(2)-----------|--0------|
|--0----------------|--0---------------|-2--------------|---------|
|-------------------|------------------|----------------|---------|
____________________________________________________________________

Chorus (Distortion):
                               1,2 (Fill)        3 (2nd Time)
|---------------------------||-----------------|----------------|
|---------------------------||-----------------|----------------|
|---------------------------||-----------------|----------------|
|--9----7----5----5----7--\-||--0----7----5----|--5-------------|
|--9----7----5----5----7--\-||--0----7----5----|--5-------------|
|--9----7----5----5----7--\-||--0----7----5----|--5-------------|

Chorus Fill:

|--10----------------------------|
|--10----10--7 ~~~ --------------|
|-------------------7--7 ~~~ ----|
|--------------------------------|
|--------------------------------|
|--------------------------------|
____________________________________________________________________


Pre - 2nd Verse:

|--0----0----0--0----0--|--0----0----0----|
|--3----3----2--3----3--|--2----2----3----|
|--2----2----2--2----2--|--2----2----0----| Back To Verse, 
|--0----0----0--0----0--|--0----0----0----| then Chorus (x3)
|-----------------------|-----------------|
|-----------------------|-----------------|

____________________________________________________________________

After 3rd Chorus, As Bass Goes Down By Step:

|-------------|---------------|-------------
|--------0----|--------0------|--------0----
|------2------|------2--------|------2------
|----2--------|----2----------|----2--------- Etc...
|--0----------|--0------------|--0-----------
|-------------|---------------|-------------
____________________________________________________________________

Pre - Solo 2 (With Delay):

|--3------3-3-3/5--5------5-4-3-3------3-3-3-3/5--5----------5-5-5-|
|--3------3-3-3/5--5------5-4-3-3------3-3-3-3/5--5----------5-5-5-|
|------------------------------------------------------------------|
|------------------------------------------------------------------|
|------------------------------------------------------------------|
|------------------------------------------------------------------|
____________________________________________________________________

Solo 2 (Distortion, Pose):

|--------------------------------------|----------------------------|
|--------------------------------------|----------------------------|
|---------7--9^(slowww bend...)(11) ~~~|-9^(11)-9^(11)-9^(11)--9 ~~~|
|-5/7--9-------------------------------|----------------------------|
|--------------------------------------|----------------------------|
|--------------------------------------|----------------------------|


|-----------------------------------------------------|
|------------(7)h8--7---------------------------------|
|--9 ~~~ --7-----------9--7--9^(11)^(9)p7-------------|
|------------------------------------------9--7 ~~~ --|
|-----------------------------------------------------|
|-----------------------------------------------------|


|------------------------|--12^(14)--12^(14)--12^(14)--12 ~~~ --12\|
|------------------------|-----------------------------------------|
|---------------10-12 ~~~|-----------------------------------------|
|------7-9-/-11----------|-----------------------------------------|
|--7-9-------------------|-----------------------------------------|
|------------------------|-----------------------------------------|


|-12h14^(15)^(14)p12------------------------------------------------|
|-------------------15p12-------------------------------------------|
|------------------------14---12--11--------------------------------|
|-------------------------------------14p12------14 ~~~ --12--11 ~~~|
|--------------------------------------------14---------------------|
|-------------------------------------------------------------------|

To End Of Verse, Drum Fill, Then Corus
____________________________________________________________________

Solo 3 (Distortion):

|------------------------------7------------------------------------|
|----------------------------7--10p7-------7-10p7------------------.|
|9^(11)-9^(11)^(9)p7---9^(11)--------9^(11)-------9^(11)^(9)p7--9~~7|
|--------------------9-----------------------------------------9----|
|-------------------------------------------------------------------|
|-------------------------------------------------------------------|


|------------------------------|------------------------------------|
|-----10-10----10-10--10h12 ~~~|------------------------------------|
|-/11-------11-----------------|--9^(11)^(9)p7-----7h9 ~~~ ---------|
|------------------------------|----------------7-------------------|
|------------------------------|------------------------------------|
|------------------------------|------------------------------------|


|-------------------------------------------------------------------|
|-------------------------------------------------------------------|
|--9^(11)^(9)p7------/12 ~~~ --11 ~~~(11)h12p11--9 ~~~ ----9\-------|
|----------------9-7------------------------------------------------|
|-------------------------------------------------------------------|
|-------------------------------------------------------------------|


|-/12^(14)^(12)^(14) ~~~ --10--12^(14)^(12)p10---------------------|
|------------------------12-------------------12-13^(15)^(13)p10---|
|------------------------------------------------------------------|
|------------------------------------------------------------------|
|------------------------------------------------------------------|
|------------------------------------------------------------------|


|------------------------|------------------------------------------|
|------------------------|-------------------15-14-15-12-15---------|
|-12--11 ~~(11)h12--9--7-|-------------11-12----------------14-14 ~~|
|------------------------|-12-11-12-14------------------------------|
|------------------------|------------------------------------------|
|------------------------|------------------------------------------|
                          |__Palm Mute (?)__|

|-17^(19)--17 ~~~ --15-14-15--15p14p12-14-12--------------------|
|--------------------------------------------15-12-15 ~~~~~~ ---|
|---------------------------------------------------------------|
|---------------------------------------------------------------|
|---------------------------------------------------------------|
|---------------------------------------------------------------|
____________________________________________________________________

Final Chords (Clean):

|--0--------------------|--0---------------------------------------|
|--3--------------------|--3---------------------------------------|
|--2--------------------|--2----------\x\x\x\ Pick Scrape \x\x\x\--|
|--2--------------------|--0---------------------------------------|
|--2--------------------|------------------------------------------|
|-----------------------|------------------------------------------|





Comments


Popular Darkness tabs & chords
Growing On Me 1 Bass Tabs
Dinner Lady Arms Chords
Girlfriend Chords
Hazel Eyes Chords
I Believe In A Thing Called Love Drum Tabs
Black Shuck 2 Tabs
Girlfriend Tabs
I Believe In A Thing Called Love 10 Tabs
I Belive In A Thing Called Love 1 Tabs
Girlfriend Ukulele


Song lyrics



↑ Back to top | Tablatures and chords are parodies/interpretations of the original songs. You may use it for private study, scholarship, research or language learning purposes only
© 2014 AZChords.com Contact us | Privacy policy | DMCA | Add/correct tabs | Request tabs | Top 50 tabs