» » »

Hazel Eyes Tabs (ver.1)

Artists:  A B C D E F G H I J K L M N O P Q R S T U V W X Y Z # 

Hazel Eyes Tabs (ver.1)

Darkness
Rating:
3/5 (2 votes)

Hard to play? Try these video lessons and learn fast.
                
Here is the FULL (intro and solos included) version of "Hazel Eyes" by one of the 
greatest bands to ever exist, The Darkness. This song is just awesome, enjoy!

NOTE: Tuning is Eb, Ab, Db, Gb, Bb, Eb

Keys
Keys
h – hammer-on
p – pull-off
b – bend
r - release
/ - slide up (to higher notes)
\ - slide down (to lower notes)
~ - vibrato

Use harmonizer effect for the intro
Intro
E-----------------------|
B-(fade in)--17~~~~~~~--|
G-----------------------|
D-----------------------|
A-----------------------|
E-----------------------|

E----------------------------------------------------------------------0-|
B-17/20--17--15--17--15--12--15--12--10--12--10--8--10--8--5--8--5--3--5-|
G------------------------------------------------------------------------|
D------------------------------------------------------------------------|
A------------------------------------------------------------------------|
E------------------------------------------------------------------------|

E--------------------------------------------------------------------|
B----3h5--3h5--5/8--5--8--8/10--8--10--10/12--10--12--12/15--12--15--|
G--------------------------------------------------------------------|
D--------------------------------------------------------------------|
A--------------------------------------------------------------------|
E--------------------------------------------------------------------|

E---------------|
B-15--12--15----|
G---------------| play the entire thing again
D---------------|
A---------------|
E---------------|

E-----------------------------------------------------------------------|
B-15---13h15--12h13--10h12--8h10--7-h8---8/10---10/12---7---7/15---13h15|
G-----------------------------------------------------------------------|
D-----------------------------------------------------------------------|
A-----------------------------------------------------------------------|
E-----------------------------------------------------------------------|

E-----------------------------------------------------------------------|
B-12h13--10h12--8h10--7-h8---8/10---10/12---8---7-----\3-----3/7----\3--|
G-----------------------------------------------------------------------|
D-----------------------------------------------------------------------|
A-----------------------------------------------------------------------|
E-----------------------------------------------------------------------|

Acoustic Guitar
E---------------------------------------2---3-----|
B-3----3----3----3----3----3----3---3---3---3-----|
G-0----0----0----2----0----0----2---0---2---0-----|
D-x----x----x----0----x----x----0---x---0---0-----|
A-3----2----3---------3----2--------3-------x-----|
E-------------------------------------------3-----|

“I hail from the flatlands of East Anglia”
“She had trekked for many moons from a land afar”
E-7-7-7-7-7-7-7-7-7-7-7-7-7-7-7-7-7-7-7-7-7-7-7-7-7-7-7-7-7-7-7-7-7-7-|
B-8-8-8-8-8-8-8-8-8-8-8-8-8-8-8-8-8-8-8-8-8-8-8-8-8-8-8-8-8-8-8-8-8-8-|
G-9-9-9-9-9-9-9-9-9-9-9-9-9-9-9-9-9-9-9-9-9-9-9-9-9-9-9-9-9-9-9-9-9-9-|
D---------------------------------------------------------------------|
A---------------------------------------------------------------------|
E---------------------------------------------------------------------|

“A town that once could boast prosperity”
“But the cruel nets had emptied the northern sea”
E-7-7-7-7-7-7-7-7-7-7-7-7-7-7-7-7-7-7-7-8-8-8-8-8-8-8-8-8-8-8-8-8-8-8-|
B-8-8-8-8-8-8-8-8-8-8-8-8-8-8-8-8-8-8-8-8-8-8-8-8-8-8-8-8-8-8-8-8-8-8-|
G-9-9-9-9-9-9-9-9-9-9-9-9-9-9-9-9-9-9-9-9-9-9-9-9-9-9-9-9-9-9-9-9-9-9-|
D---------------------------------------------------------------------|
A---------------------------------------------------------------------|
E---------------------------------------------------------------------|

“And she said "hoots, I cannae get back tae me hoos in bonny Scotland"”

“Girl  with the hazel eyes - Aaaaah!
 Girl  with the hazel eyes - Aaaaah!”
E-------------------------------------------|
B-------------------------------------------|
G-------------------------------------5-----| 2x
D-5-----5---5----5-----5-----5---5----5-----|
A-5-----5---5----5-----5-----5---5----3-----|
E-3-----3---3----3-----3-----3---3----------|

E-----------------12-------12h15p12h15-------------------------|
B-------------12------15----------------12h15p12h15------------|
G-12~~~12h14-----------------------------------------14b16~~~--| 2x
D--------------------------------------------------------------|
A--------------------------------------------------------------|
E--------------------------------------------------------------|

“The elements had taken their toll on her”
“I had never seen a set of eyes more hazeler”
E-7-7-7-7-7-7-7-7-7-7-7-7-7-7-7-7-7-7-7-7-7-7-7-7-7-7-7-7-7-7-7-7-7-7-|
B-8-8-8-8-8-8-8-8-8-8-8-8-8-8-8-8-8-8-8-8-8-8-8-8-8-8-8-8-8-8-8-8-8-8-|
G-9-9-9-9-9-9-9-9-9-9-9-9-9-9-9-9-9-9-9-9-9-9-9-9-9-9-9-9-9-9-9-9-9-9-|
D---------------------------------------------------------------------|
A---------------------------------------------------------------------|
E---------------------------------------------------------------------|

“Her face was weather beaten and her hair greasy”
“And a tear did fall as she looked up at me”
E-7-7-7-7-7-7-7-7-7-7-7-7-7-7-7-7-7-7-7-8-8-8-8-8-8-8-8-8-8-8-8-8-8-8-|
B-8-8-8-8-8-8-8-8-8-8-8-8-8-8-8-8-8-8-8-8-8-8-8-8-8-8-8-8-8-8-8-8-8-8-|
G-9-9-9-9-9-9-9-9-9-9-9-9-9-9-9-9-9-9-9-9-9-9-9-9-9-9-9-9-9-9-9-9-9-9-|
D---------------------------------------------------------------------|
A---------------------------------------------------------------------|
E---------------------------------------------------------------------|

“And she said "hoots, I cannae get back tae me hoos in bonny Scotland"”

“Girl  with the hazel eyes - Aaaaah!
 Girl  with the hazel eyes - Aaaaah!”
E-------------------------------------------|
B-------------------------------------------|
G-------------------------------------5-----| 2x
D-5-----5---5----5-----5-----5---5----5-----|
A-5-----5---5----5-----5-----5---5----3-----|
E-3-----3---3----3-----3-----3---3----------|

E-----------------12-------12h15p12h15-------------------------|
B-------------12------15----------------12h15p12h15------------|
G-12~~~12h14-----------------------------------------14b16~~~--| 2x
D--------------------------------------------------------------|
A--------------------------------------------------------------|
E--------------------------------------------------------------|

Solo
E-----------------------------------------------------------------------|
B-----------------------------------------------------------------------|
G-------------12h14-12h14--14b16--12--14b16--12--14b16--14b16r14p12-----|
D-------12h14--------------------------------------------------------14-|
A-14p12-----------------------------------------------------------------|
E-----------------------------------------------------------------------|

E----------------------------------------------------------x--12-12--|
B----------------------------------------------------------x--15-15--|
G--------------------------------------------------------------------|
D-14ph--14--12-------------------------------------------------------|
A---------------14--12--14--12--10--12b14r12p10----------------------|
E------------------------------------------------12--12--------------|

E-12-12--12-12------------------------------------------------|
B-13-13--12-12------------------------------------------------|
G---------------14b16----14b16r14p12------12h14p12h14p12~~~~--|
D-------------------------------------14----------------------|
A-------------------------------------------------------------|
E-------------------------------------------------------------|

“I shall travel with thee
For to see your folks in Scotland
With their blessing, on one knee
I shall ask for your left hand”

“Girl  with the hazel eyes - Aaaaah!
 Girl  with the hazel eyes - Aaaaah!”
E-------------------------------------------|
B-------------------------------------------|
G-------------------------------------5-----| 2x
D-5-----5---5----5-----5-----5---5----5-----|
A-5-----5---5----5-----5-----5---5----3-----|
E-3-----3---3----3-----3-----3---3----------|

“Girl  with the hazel eyes Ah-ah-ah-ah! Ah-ah-ah-ah! Ahhhhh!”
 Girl  with the hazel eyes Ah-ah-ah-ah! Ah-ah-ah-ah! Ahhhhh! Woo!"
E-----------------12-------12h15p12h15-------------------------|
B-------------12------15----------------12h15p12h15------------|
G-12~~~12h14-----------------------------------------14b16~~~--| 4x
D--------------------------------------------------------------|
A--------------------------------------------------------------|
E--------------------------------------------------------------|

Solo
E----------14-15-17-15-17-17b19---17b19ph~~~-17b19r17p15--------------|
B----15-17------------------------------------------------17--17b20---|
G-16------------------------------------------------------------------|
D---------------------------------------------------------------------|
A---------------------------------------------------------------------|
E---------------------------------------------------------------------|

E-----------------------------------------22---------22---------22--|
B-17b20r17p15----------15----------22b24------22b24------22b24------|
G--------------17--17------16~~~------------------------------------|
D-------------------------------------------------------------------|
A-------------------------------------------------------------------|
E-------------------------------------------------------------------|

E--------22----------22-22-20-20-19-19-20-19-22-22-20-20-19-19-20-19-|
B-22b24------22b24--------------------play very fast-----------------|
G--------------------------------------------------------------------|
D--------------------------------------------------------------------|
A--------------------------------------------------------------------|
E--------------------------------------------------------------------|

E-22b24~~~~~~\-|
B--------------|
G--------------|
D--------------|
A--------------|
E--------------|

“I shall travel with thee
For to see your folks in Scotland
With their blessing, on one knee
I shall ask for your left hand”
            
Hard to play? Try these video lessons and learn fast. | Correct




comments powered by Disqus
↑ Back to top | Tablatures and chords are parodies/interpretations of the original songs. You may use it for private study, scholarship, research or language learning purposes only