>
 >
Growing On Me Full Version

Growing On Me Full Version Guitar Tabs

Darkness - Growing On Me Full Version chords, tabs, tablatures, lyrics

Guitar lessons | Add/correct | Request | Top 50 tabs Artists:  A B C D E F G H I J K L M N O P Q R S T U V W X Y Z 0-9

Growing On Me Full Version Guitar Tabs – Darkness

CD, Sheet music, Poster

Do you like Growing On Me Full Version? Share with your friends now
Tabs
Dropped D Tuning

Intro
|---------5----------5--------------------------------------0-----|
|-------------3----------3------3--------------3--------------3---|
|---2------------2----------2--------------2------2---------------|
|---0------------------------------------0--------------0---------|
|-------------------------------------4---------------------------|
|-----------------------------------------------------------------|

|---5----------5-------------------------------------0-------------------------------
|-------3----------3------3--------------3-------------------------------------------
|-----------2----------2--------------2------2-----------2--2---2--------------------
|-----------------------------------0--------------0-----2--2---2----5-4-0-5-4-0-0---
|-------------------------------4------------------------0--0---0--0-5-4-0-5-4-0-0---
|--------------------------------------------------------------------5-4-0-5-4-0-0---

Verse

|-------------------------------------------------------------|
|-------------------------------------------------------------|
|-------------------------------------------------------------|
|---0-0-7-7-9-9\-----0-0-7-7-9-9-7-7--5-5-5-4-0--0-0-7-7-9-9\-|
|---0-0-7-7-9-9\-----0-0-7-7-9-9-7-7--5-5-5-4-0--0-0-7-7-9-9\-|
|---0-0-7-7-9-9\-----0-0-7-7-9-9-7-7--5-5-5-4-0--0-0-7-7-9-9\-|

|------------------3-3-3-3--2-2---|
|------------------3-3-3-3--3-3---|
|---2--2-2--2-2-2--2-2-2-2--2-2---|
|---2--2-2--2-2-2--0-0-0-0--0-0---|
|---0--0-0--0-0-0-----------------|
|---------------------------------|

|-------------------------------------------------------------|
|-------------------------------------------------------------|
|-------------------------------------------------------------|
|---0-0-7-7-9-9\-----0-0-7-7-9-9-7-7--5-5-5-4-0--0-0-7-7-9-9\-|
|---0-0-7-7-9-9\-----0-0-7-7-9-9-7-7--5-5-5-4-0--0-0-7-7-9-9\-|
|---0-0-7-7-9-9\-----0-0-7-7-9-9-7-7--5-5-5-4-0--0-0-7-7-9-9\-|

|--------------------|
|--------------------|
|--2-2-2-2-----------|
|--2-2-2-2-----------|
|--0-0-0-0-----------|
|----------0-0-0-2-4-|

pre chorusIntro
|---------5----------5--------------------------------------0-----|
|-------------3----------3------3--------------3--------------3---|
|---2------------2----------2--------------2------2---------------|
|---0------------------------------------0--------------0---------|
|-------------------------------------4---------------------------|
|-----------------------------------------------------------------|

Verse

|-------------------------------------------------------------|
|-------------------------------------------------------------|
|-------------------------------------------------------------|
|---0-0-7-7-9-9\-----0-0-7-7-9-9-7-7--5-5-5-4-0--0-0-7-7-9-9\-|
|---0-0-7-7-9-9\-----0-0-7-7-9-9-7-7--5-5-5-4-0--0-0-7-7-9-9\-|
|---0-0-7-7-9-9\-----0-0-7-7-9-9-7-7--5-5-5-4-0--0-0-7-7-9-9\-|

|------------------3-3-3-3--2-2---|
|------------------3-3-3-3--3-3---|
|---2--2-2--2-2-2--2-2-2-2--2-2---|
|---2--2-2--2-2-2--0-0-0-0--0-0---|
|---0--0-0--0-0-0-----------------|
|---------------------------------|

|-------------------------------------------------------------|
|-------------------------------------------------------------|
|-------------------------------------------------------------|
|---0-0-7-7-9-9\-----0-0-7-7-9-9-7-7--5-5-5-4-0--0-0-7-7-9-9\-|
|---0-0-7-7-9-9\-----0-0-7-7-9-9-7-7--5-5-5-4-0--0-0-7-7-9-9\-|
|---0-0-7-7-9-9\-----0-0-7-7-9-9-7-7--5-5-5-4-0--0-0-7-7-9-9\-|

|--------------------|
|--------------------|
|--2-2-2-2-----------|
|--2-2-2-2-----------|
|--0-0-0-0-----------|
|----------0-0-0-2-4-|

pre chorusIntro
|---------5----------5--------------------------------------0-----|
|-------------3----------3------3--------------3--------------3---|
|---2------------2----------2--------------2------2---------------|
|---0------------------------------------0--------------0---------|
|-------------------------------------4---------------------------|
|-----------------------------------------------------------------|
chorus
|------------------------------------------------------------------------|
|------------------------------------------------------------------------|
|------------------------------------------------------------------------|
|--4-4-4-5-5-5-5-5-7-7-7-0-0-0-0-0------9-9-9-5-5-5-5-5-7-7-7-7-7-7-7-7--|
|--4-4-4-5-5-5-5-5-7-7-7-0-0-0-0-0------9-9-9-5-5-5-5-5-7-7-7-7-7-7-7-7--|
|--4-4-4-5-5-5-5-5-7-7-7-0-0-0-0-0------9-9-9-5-5-5-5-5-7-7-7-7-7-7-7-7--|
 
          
|------------------------------------------------------------------------|
|------------------------------------------------------------------------|
|------------------------------------------------------------------------|
|--4-4-4-5-5-5-5-5-7-7-7-0-0-0-0-0----------7----5-4-0-5-4-0-------------|
|--4-4-4-5-5-5-5-5-7-7-7-0-0-0-0-0----------7----5-4-0-5-4-0-------------|
|--4-4-4-5-5-5-5-5-7-7-7-0-0-0-0-0----------7----5-4-0-5-4-0-------------|
interlude
|--------------------------------------|
|-----8-8-7-7-5-7-7-7-8-8-7-7-5-7-7-7--|
|-----7-7-7-7-7-7-7-7-7-7-7-7-7-7-7-7--|
|-----7-7-7-7-7-7-7-7-7-7-7-7-7-7-7-7--|
|--------------------------------------|
|--------------------------------------|    

solo 1
|------------------------------------------------------------------------------|
|---------------------------------- 7 11 8 7 8 9-----17b19 17b19 19p17-------- |
|---------------------7 7 9 7 9b11---------------------------------------------|
|------------------------------------------------------------------------------|
|---5-5-5~ 5 7 5 7 9-----------------------------------------------------------|
|------------------------------------------------------------------------------|

|--------------------17b19 17 15 14h15p14 12~~~--------------------------|
|15 17 15h17p15 15~------------------------------------------------------|
|------------------------------------------------------------------------|
|------------------------------------------------------------------------|
|------------------------------------------------------------------------|
|------------------------------------------------------------------------|
solo2
|------------------------------------------------------------------------|
|---------------------------------------------- 3h5p3h5 2h3p2h2----------|
|---------------------7p6 4 6 7b9 7b9 7b9 7 9 7--------------------------|
|------------------------------------------------------------------------|
|-5 5 7 5 7 5/7h9 9 9----------------------------------------------------|
|------------------------------------------------------------------------|

|------------------------------------------------------------------------|
|-----------------------------------15p14 12----15b17 15b17 15b17- ------|
|--4h6p4h6 2~--------------------------------14--------------------------|
|--------------12 12 14 12 14/16 16--------------------------------------|
|------------------------------------------------------------------------|
|------------------------------------------------------------------------|

|-------15-------15-------15---------------------------------------------|
|-17b19 ---17b19--- 17b19----17b19v-----15----15 15p12----17p12----15p12-|
|------------------------------------14----14--------- 14-------14-------|
|------------------------------------------------------------------------|
|------------------------------------------------------------------------|
|------------------------------------------------------------------------|

|------------------------------------------------------------------------|
|-----17p12----15p12----17p12-------15p12---15p12----15p12---------------|
|--14-------14-------14-------14-14------14-------14-------14-12-14-12---|
|------------------------------------------------------------------------|
|------------------------------------------------------------------------|
|------------------------------------------------------------------------|

|------------------------------------------------------------------------|
|------------------------------------------------------------------------|
|-11h12p11-9~-7-9-7-6-7-6-4-6-4-2-4-2-2~---------------------------------|
|------------------------------------------------------------------------|
|------------------------------------------------------------------------|
|------------------------------------------------------------------------|
i think that is everything please correct me if i am wrong cheers.thats all from the stupid kid.





Comments


Popular Darkness tabs & chords
Love On The Rocks Bass Tabs
Blind Man Chords
Hazel Eyes Chords
Keep Me Hangin On Chords
A Thing Called Love Tabs
I Believe In A Thing Called Love 3 Tabs
I Belive In A Thing Called Love Tabs
Living Each Day Blind Tabs
Love Is Only A Feeling 5 Tabs
Love On The Rocks Tabs


Song lyrics



↑ Back to top | Tablatures and chords are parodies/interpretations of the original songs. You may use it for private study, scholarship, research or language learning purposes only
© 2014 AZChords.com Contact us | Privacy policy | DMCA | Add/correct tabs | Request tabs | Top 50 tabs