» » »

Darkness, Grief Hammer Tabs (ver.1)

Artists:  A B C D E F G H I J K L M N O P Q R S T U V W X Y Z # 

Grief Hammer Tabs (ver.1)

Darkness Tabs
Rating:
5/5 (2 votes)
Hard to play? Try these video lessons and learn fast.
                This is new Darkness track...and fu*kin rocks *Edited with $hab's help


Intro

1------------------------------------|
2------------------------------------|
3--2-------4---------22pm---22pm-----|
4--2-------4---------22pm---22pm-----|
5--0--000--0--000----00-----00-------|
6------------------3------3----------|   X3

Pre-Chorus

1--33333--------------------------|
2--33333--------------------------|
3--00000--------------------------|
4--00000--------------------------|
5--xxxxx--------------------------|
6--33333--------------------------|

Chorus

1----------------------------------------------------------|
2----------------------3-----------------------------------|
3-2-----2-------2------2---2-------2-------2---------------|
4-2-----2-------2------0---2-------2-------2---------7--5--|
5-0-----0-------0------0---0-------0-------0---------5--3--|
6---3-0----3-0----3-0---------3-0-----3-0-----3-0----------|

X2

Verse

1-----------------------------------------|
2-----------------------------------------|
3--2pm--2pm---------2pm--2pm--------------|
4--2pm--2pm---------2pm--2pm----4--5--4---|
5--0----0pm---------0----0------2--3--2---|
6------------3--0-------------------------|

X2

Pre-Chorus 2

1--------------------------|
2--------------------------|
3--5555pm----222pm---------|
4--5555pm----222pm---------|
5--3333pm----000-----------|
6--------------------------|
            

comments powered by Disqus
↑ Back to top | Darkness Tabs for Grief Hammer. Lyrics for acoustic guitar and electric guitar. Tablatures and chords are parodies/interpretations of the original songs. You may use it for private study, scholarship, research or language learning purposes only